PrimaNota.ru - самый крупный в мире бесплатный архив песенных текстов, аккордов, табулатур и нот


Dri - Couch Slouch - текст песни, таба, видео

Регистрация Запомнить меня
Войти через:  Facebook Google Twitter Vk Yandex Mail.ru

Dri - Couch Slouch - текст песни, таба, видео

Печатать
Просмотров: 121
Artist: D.r.i.
Piece: Couch Slouch
Instrument: Guitar
                  
eb:------------------------------------------------------|
Bb:------------------------------------------------------|
Gb:------------------------------------------------------|
Db:--------7-7--10-10--9-9--12-12--7-7--10-10------------|
Ab:--------5-5--8--8---7-7--10-10--5-5--8--8---6-7-8-9---|
Eb:-12/----------------------------------------4-5-6-7---|

eb:--------------------------------------------5nh-5nh-5nh-----------|
Bb:---------------------------------------------------------5nh------|
Gb:--------------------------------------------------------------5nh-|
Db:----7-7--10-10--9-9--12-12--7-7--10-10----------------------------|
Ab:----5-5--8--8---7-7--10-10--5-5--8--8---6-7-----------------------|
Eb:----------------------------------------4-5-----------------------|

verse
eb:---------------------------------------------------------------------------------------|
Bb:---------------------------------------------------------------------------------------|
Gb:---------------------------------------------------------------------------------------|
Db:----7-7--10-10--9-9--12-12--7-7--10-10--9-9--12-12--10-10-10-10-10-10-10-10-9999999999-|
Ab:----5-5--8--8---7-7--10-10--5-5--8--8---7-7--10-10--8--8--8--8--8--8--8--8--7777777777-|
Eb:---------------------------------------------------------------------------------------|

eb:------------------------------------------------------------------|
Bb:------------------------------------------------------------------|
Gb:------------------------------------------------------------------|
Db:-10-10-10-10-10-10-10-10-9999999999--5555555555-4--5555555555-4---|
Ab:-8--8--8--8--8--8--8--8--7777777777--3333333333-2--3333333333-2---|
Eb:------------------------------------------------------------------|

eb:------------------------------------------------------|
Bb:------------------------------------------------------|
Gb:------------------------------------------------------|
Db:--------7-7--10-10--9-9--12-12--7-7--10-10------------|
Ab:--------5-5--8--8---7-7--10-10--5-5--8--8---6-7-8-9---|
Eb:-12/----------------------------------------4-5-6-7---|

verse
eb:---------------------------------------------------------------------------------------|
Bb:---------------------------------------------------------------------------------------|
Gb:---------------------------------------------------------------------------------------|
Db:----7-7--10-10--9-9--12-12--7-7--10-10--9-9--12-12--10-10-10-10-10-10-10-10-9999999999-|
Ab:----5-5--8--8---7-7--10-10--5-5--8--8---7-7--10-10--8--8--8--8--8--8--8--8--7777777777-|
Eb:---------------------------------------------------------------------------------------|

eb:------------------------------------------------------------------|
Bb:------------------------------------------------------------------|
Gb:------------------------------------------------------------------|
Db:-10-10-10-10-10-10-10-10-9999999999--5555555555-4--5555555555-4---|
Ab:-8--8--8--8--8--8--8--8--7777777777--3333333333-2--3333333333-2---|
Eb:------------------------------------------------------------------|

eb:------------------------------------------------------|
Bb:------------------------------------------------------|
Gb:------------------------------------------------------|
Db:--------7-7--10-10--9-9--12-12--7-7--10-10------------|
Ab:--------5-5--8--8---7-7--10-10--5-5--8--8---6-7-8-9---|
Eb:-12/----------------------------------------4-5-6-7---|

verse
eb:---------------------------------------------------------------------------------------|
Bb:---------------------------------------------------------------------------------------|
Gb:---------------------------------------------------------------------------------------|
Db:----7-7--10-10--9-9--12-12--7-7--10-10--9-9--12-12--10-10-10-10-10-10-10-10-9999999999-|
Ab:----5-5--8--8---7-7--10-10--5-5--8--8---7-7--10-10--8--8--8--8--8--8--8--8--7777777777-|
Eb:---------------------------------------------------------------------------------------|

eb:----------------------------------------------------------------|
Bb:----------------------------------------------------------------|
Gb:----------------------------------------------------------------|
Db:-10-10-10-10-10-10-10-10-9999999999--5555555555-4444444444--5---|
Ab:-8--8--8--8--8--8--8--8--7777777777--3333333333-2222222222--3---|
Eb:----------------------------------------------------------------|


eb:--------------------------------------------------|
Bb:--------------------------------------------------|
Gb:--------------------------------------------------|
Db:--5-5-5-5-5-5-5-5-5-5-5--4-4-4-4-4-4-4-4-4-4-4-4--|
Ab:--3-3-3-3-3-3-3-3-3-3-3--2-2-2-2-2-2-2-2-2-2-2-2--|
Eb:--------------------------------------------------|

eb:--------------------------------------------------|
Bb:--------------------------------------------------|
Gb:--------------------------------------------------|
Db:--5-5-5-5-5-5-5-5-5-5-5--4-4-4-4-4-4-4-4-4-4-4-4--|
Ab:--3-3-3-3-3-3-3-3-3-3-3--2-2-2-2-2-2-2-2-2-2-2-2--|
Eb:--------------------------------------------------|

eb:--------------------------------------------------|
Bb:--------------------------------------------------|
Gb:--------------------------------------------------|
Db:--5-5-5-5-5-5-5-5-5-5-5--4------------------------|
Ab:--3-3-3-3-3-3-3-3-3-3-3--2------------------------|
Eb:--------------------------------------------------|


eb:------------------------------------------------------|
Bb:------------------------------------------------------|
Gb:------------------------------------------------------|
Db:--------7-7--10-10--9-9--12-12--7-7--10-10------------|
Ab:--------5-5--8--8---7-7--10-10--5-5--8--8---6-7-8-9---|
Eb:-12/----------------------------------------4-5-6-7---|

verse
eb:---------------------------------------------------------------------------------------|
Bb:---------------------------------------------------------------------------------------|
Gb:---------------------------------------------------------------------------------------|
Db:----7-7--10-10--9-9--12-12--7-7--10-10--9-9--12-12--10-10-10-10-10-10-10-10-9999999999-|
Ab:----5-5--8--8---7-7--10-10--5-5--8--8---7-7--10-10--8--8--8--8--8--8--8--8--7777777777-|
Eb:---------------------------------------------------------------------------------------|

eb:------------------------------------------------------|
Bb:------------------------------------------------------|
Gb:------------------------------------------------------|
Db:-10-10-10-10-10-10-10-10-9999999999--5555555555-4-----|
Ab:-8--8--8--8--8--8--8--8--7777777777--3333333333-2-----|
Eb:------------------------------------------------------|
Добавлено: 26.09.2015
Другие материалы по этой песне:
  • Аккорды и текст

Страница создана 31.07.2012
http://primanota.ru/dri/couch-slouch-chords.htm
Привет, Гость.
Предлагаем пройти революционный курс по гитаре.
Подарок от PrimaNota.Ru, забирай!