PrimaNota.ru - самый крупный в мире бесплатный архив песенных текстов, аккордов, табулатур и нот


Dri - Blockhead - текст песни, таба, видео

Регистрация Запомнить меня
Войти через:  Facebook Google Twitter Vk Yandex Mail.ru

Dri - Blockhead - текст песни, таба, видео

Печатать
Просмотров: 108
Artist: D.r.i.
Piece: Block Head
Instrument: Guitar

This is in regular tuning(e,B,G,D,A,E)

INTRO
e|-----------------------------------------------------------------------------------------|
B|-------11-------------11----------8-------7----------11-------------11----------8--------|
G|-----12--12---------12--12-------8-8-----7-7-------12--12---------12--12-------8-8-------|
D|---12------12-----12------12----8---8---7---7----12------12-----12------12----8---8------|
A|-10----------10-10----------10-6-----6-5-----5-10----------10-10----------10-6-----8-5~~~|
E|-----------------------------------------------------------------------------------------|

MAIN VERSE
e|---------------------|
B|---------------------|
G|-----------1212-1212-|
D|-1212-1010-1212-1212-|
A|-1212-1010--8-8-1010-|
E|-1010--8-8-----------|

CHORUS
e|-----------------------------|
B|-----------------------------|
G|-131313-1212-1010-1212121212-|
D|-131313-1212-1010-1212121212-|
A|-111111-1010--8-8-1010101010-|
E|-----------------------------|

ON THE DEMO VERISON ON DIRTY ROTTEN CD (the one with 44 tracks instead of 22) BLOCK HEAD IS PLAYED 2 FRETS UP.
Добавлено: 26.09.2015
Другие материалы по этой песне:
  • Аккорды и текст

Страница создана 08.06.2012
http://primanota.ru/dri/blockhead-chords.htm
Привет, Гость.
Предлагаем пройти революционный курс по гитаре.
Подарок от PrimaNota.Ru, забирай!