PrimaNota.ru - самый крупный в мире бесплатный архив песенных текстов, аккордов, табулатур и нот


Dri - All For Nothing - текст песни, таба, видео

Регистрация Запомнить меня
Войти через:  Facebook Google Twitter Vk Yandex Mail.ru

Dri - All For Nothing - текст песни, таба, видео

Печатать
Просмотров: 128
Уроки эстрадного вокала в Санкт-Петербурге
-------------------------------------------------------------------------------
                             SONG NAME - Band Name
-------------------------------------------------------------------------------
Tabbed by:turd_hurdler324
E-mail:
You can't find this tab anywhere. and i know a lot of people want it so i decided to make it
Tuning:standard

e|---------------------------------------------------------------------------|
B|---------------------------------------------------------------------------|
G|-------------------7-------------------------------------------------------|  
D|-9-----5-----4-----7-----9-----5-----7-----8-------------------------------|
A|-9-----5-----4-----5-----9-----5-----7-----8-------------------------------|
E|-7-x-x-3-x-x-2-x-x---x-x-7-x-x-3-x-x-5-x-x-6-------------------------------|
      
e|---------------------------------------------------------------------------|
B|---------------------------------------------------------------------------|
G|-------------------7-------------------------------------------------------|
D|-9-----5-----4-----7-----7-----5-----7-----3-------------------------------|  x2
A|-9-----5-----4-----5-----7-----5-----7-----3-------------------------------|
E|-7-x-x-3-x-x-2-x-x---x-x-9-x-x-3-x-x-5-x-x-1-------------------------------|




************************************

| /   slide up
| \   slide down
| h   hammer-on
| p   pull-off
| ~   vibrato
| +   harmonic
| x   Mute note
| b   Bend
| pb  Pre-bend
| br  Bend release
| pbr Pre-bend release
| brb Bend release bend

************************************
Добавлено: 26.09.2015
Другие материалы по этой песне:
  • Аккорды и текст

Страница создана 01.04.2012
http://primanota.ru/dri/all-for-nothing-chords.htm
Привет, Гость.
Предлагаем пройти революционный курс по гитаре.
Подарок от PrimaNota.Ru, забирай!