PrimaNota.ru - самый крупный в мире бесплатный архив песенных текстов, аккордов, табулатур и нот


Dri - A Coffin - текст песни, таба, видео

Регистрация Запомнить меня
Войти через:  Facebook Google Twitter Vk Yandex Mail.ru

Dri - A Coffin - текст песни, таба, видео

Печатать
Просмотров: 102
Artist: D.r.i.
Piece: A Coffin
Instrument: Guitar

e:---------------------------------------------------------------------------|
B:---------------------------------------------------------------------------|
G:---------------------------------------------------------------------------|
D:---------------------------------------------------------------------------|
A:-3-3-3-3-3-3-3-3-3-6-6-6-6-6-6-6-6-6-5-5-5-5-5-5-5-5-5-5-8-8-8-8-8-8-8-8-8-|
E:-1-1-1-1-1-1-1-1-1-4-4-4-4-4-4-4-4-4-3-3-3-3-3-3-3-3-3-3-6-6-6-6-6-6-6-6-6-|

e:-----------------------------------------------------------|
B:-----------------------------------------------------------|
G:-----------------------------------------------------------|
D:-----------------------------------------------------------|
A:-3-3-3-3-3-3-3-3-3-6-6-6-6-6-6-6-6-6-5-5-5-5-5-5-5-5-5-5-4-|
E:-1-1-1-1-1-1-1-1-1-4-4-4-4-4-4-4-4-4-3-3-3-3-3-3-3-3-3-3-2-|


e:-------|
B:-------|
G:-------|
D:-------|
A:-8-4-3-|
E:-6-2-1-|


e:------------------------------------------|
B:------------------------------------------|
G:------------------------------------------|
D:------------------------------------------|  x3
A:-333333333-666666666-5555555555-444444444-|
E:-111111111-444444444-3333333333-222222222-|


verse
e:------------------------------------------|
B:------------------------------------------|
G:------------------------------------------|
D:------------------------------------------|  x2
A:-333333333-666666666-5555555555-444444444-|
E:-111111111-444444444-3333333333-222222222-|


e:------------------------------------|
B:------------------------------------|
G:------------------------------------|
D:------------------------------------| x5
A:-777777777-10-10-10-10-10-888888888-|
E:-555555555-8--8--8--8--8--666666666-|


e:-------|
B:-------|
G:-------|
D:-------|
A:-8-4-3-|
E:-6-2-1-|


e:------------------------------------------|
B:------------------------------------------|
G:------------------------------------------|
D:------------------------------------------|  x3
A:-333333333-666666666-5555555555-444444444-|
E:-111111111-444444444-3333333333-222222222-|


e:------------------------------------------|
B:------------------------------------------|
G:------------------------------------------|
D:------------------------------------------|  x3
A:------------------------------------------|
E:-111111111-444444444-3333333333-222222222-|

e:------------------------------------------|
B:------------------------------------------|
G:------------------------------------------|
D:------------------------------------------|
A:-333333333-666666666-5555555555-444444444-|
E:-111111111-444444444-3333333333-222222222-|

e:------------------------------------|
B:------------------------------------|
G:------------------------------------|
D:------------------------------------| 
A:-333333333-666666666-5555555555-4-4-|
E:-111111111-444444444-3333333333-2-2-|
Добавлено: 26.09.2015
Другие материалы по этой песне:
  • Аккорды и текст

Страница создана 28.07.2012
http://primanota.ru/dri/a-coffin-chords.htm
Привет, Гость.
Предлагаем пройти революционный курс по гитаре.
Подарок от PrimaNota.Ru, забирай!