PrimaNota.ru - самый крупный в мире бесплатный архив песенных текстов, аккордов, табулатур и нот


Drew Chadwick - Heaven Awaits - таба, видео

Регистрация Запомнить меня
Войти через:  Facebook Google Twitter Vk Yandex Mail.ru

Drew Chadwick - Heaven Awaits - таба, видео

Печатать
Просмотров: 74
-------------------------------------------------------------------------------
                             Heaven Awaits(Intro)- Drew Chadwick
-------------------------------------------------------------------------------
Tabbed by: Daisy Cendejas
E-mail: Cendejasdaisy@yahoo.comm
Capo: 4 (tabs relative to capo)
My first tabs, so correct me if i'm wrong
Tuning: Standard

e|----------------------------------------------------------------|
B|-5---0----3---0-------0h30h3-0-----0h10h1-0---------------------|
G|--0----0---0---0--------------0------------0--------------------|
D|----------------------------------------------------------------|
A|-7-7-7--7-5-5-5-5--0h3---------3-oh3--------3-------------------|
E|----------------------------------------------------------------|

e|----------------------10----------------------------------------|
B|-5----0-----7----8-10-------0h30h3-0--------0h10h1-0------------|
G|--0-----0-----0---------------------0---------------0-----------|
D|----------------------------------------------------------------|
A|-7--7-7--7--7---7--------0h3----------3-0h3-----------3---------|
E|----------------------------------------------------------------|

e|----------------------------------------------------------------|
B|-5------0------7----0-------0h30h3-0--------0h10h1-0------------|
G|---0------0------0----0-------------0--------------0------------|
D|----------------------------------------------------------------|
A|-7---7--7---7--7--7-7--7--0h3---------3-0h3----------3----------|
E|----------------------------------------------------------------|

e|----------------------11--------------5s7-----------------------|
B|-5---0-----7-----8-10-------0h30h3-0-------8-7------------------|
G|--0-----0-----0---------------------0---------7-----------------|
D|----------------------------------------------------------------|
A|-7-7-7--7--7---7---------0h3------------------------------------|
E|----------------------------------------------------------------|

e|----------------------------------------------------------------| 
B|-10-----10s12-----8----9s10------7-----7s8-----5------3---------|    
G|----0---------0-----0-------0------0-------0-----0------0-------| 
D|----------------------------------------------------------------|
A|-10--10-10s12--12-7--7-9s10--10--5--5--7s8--7--3---3--2---2-----|
E|----------------------------------------------------------------| 
                                                                           {DO THESE TWO TWICE}
e|---------------------15-----14-----10----7----3---2-----5s7-----|
B|-10----12-----14--------0------0-----0----8-----3-----------8-7-|
G|---0------0------0--------------------------0---------0-------7-|
D|----------------------------------------------------------------|
A|-10-10-12--12-14--14-14--14-14--14-10--10-----3----3------------|
E|----------------------------------------------------------------|
 
This is all I have figured out so far, if you know the rest please add! 
Добавлено: 02.01.2016
Вам также может быть интересно:
Другие материалы по этой песне:
  • Аккорды и текст

Страница создана 02.01.2016
http://primanota.ru/drew-chadwick/heaven-awaits-chords.htm
Привет, Гость.
Предлагаем пройти революционный курс по гитаре.
Подарок от PrimaNota.Ru, забирай!