PrimaNota.ru - самый крупный в мире бесплатный архив песенных текстов, аккордов, табулатур и нот


Dressy Bessy - Jenny Come On - аккорды и текст, видео

Регистрация Запомнить меня
Войти через:  Facebook Google Twitter Vk Yandex Mail.ru

Dressy Bessy - Jenny Come On - аккорды и текст, видео

Печатать
Просмотров: 102
Jenny Come On
Dressy Bessy
Dressy Bessy - Jenny Come On

Standard tuning
 
e|-------------------------------------------------|
B|----5-7---5-----5-7---5-----5-7---5-----5-7---5--|
G|-------------------------------------------------|
D|7-7---------7-7---------7-7---------7-7----------|
A|-------------------------------------------------|
E|-------------------------------------------------|

e|-----5-7---5-----7-9---7-------------------------|
B|-----------------------------5-7---5-----5-7---5-|
G|-7-7---------9-9---------------------------------|
D|-------------------------7-7---------7-7---------|
A|-------------------------------------------------|
E|-------------------------------------------------|

A A A A D E A A

 A
Jenny bought a brand new dress

she wore on the day we went for soda 
 D                            E                                  A
 everywhere that Jenny walks, all the boys make sure they walk beside her
 A 
Jenny bought a brand new dress, it's pretty and she bought it for a dollar
 D                           E                               A 
 dress it up she put it on a silver pin was hanging from her collar

 B        D
  oh no I think we're older
 A
 come on Jenny come on, come on Jenny come on
 B                D
  knock that chip off your shoulder
 A
 come on Jenny come on, come on Jenny come on

 A
Jenny bought a brand new hat

she wore it on the day we went for cider
 D                        E                                   A
 anytime that Jenny winks all the girls make sure they wink behind her
 A
Jenny says it's not so great, she's going on another date, she's gorgeous.
 D                         E                               A
 anytime that Jenny sings, look at all the pretty things before her

 B        D
  oh no I think we're older
 A
 come on Jenny come on, come on Jenny come on
 B                D
  knock that chip off your shoulder
 A
 come on Jenny come on, come on Jenny come on

Chorded by: Roithy
Email: ruthtan@live.com
Добавлено: 23.06.2015
Вам также может быть интересно:
Другие материалы по этой песне:
  • Аккорды и текст

Страница создана 23.06.2015
http://primanota.ru/dressy-bessy/jenny-come-on-chords.htm
Привет, Гость.
Предлагаем пройти революционный курс по гитаре.
Подарок от PrimaNota.Ru, забирай!