PrimaNota.ru - самый крупный в мире бесплатный архив песенных текстов, аккордов, табулатур и нот


Drenge - The Woods - таба, видео

Регистрация Запомнить меня
Войти через:  Facebook Google Twitter Vk Yandex Mail.ru

Drenge - The Woods - таба, видео

Печатать
Просмотров: 308
-------------------------------------------------------------------------------
                             THE WOODS - Drenge
-------------------------------------------------------------------------------
Tabbed by: James Souter
Album: Undertow
Tuning: Drop D

This is my first try at tabbing, from what I can tell, this tab is fairly accurate, 
feel free to comment if you feel anything needs correcting. 

Intro/Verse 1
e|----------------------------|
B|----------------------------|
G|----------------------------|
D|----3-----2-------------0---|
A|--------------5-----3h5--5--|
D|-0----0-0---0----0--------0-|

e |---------------------------------------------------------------------------|                 
B |---------------------------------------------------------------------------|                 
G |-12--12-12-12--12-12-12--10-14--14-14-14--14-14-14-------------------------|                                         
D |-12--12-12-12--12-12-12--10-14--14-14-14--14-14-14-------------------------|         x3 (both sections)      
A |-10--10-10-10--10-10-10--8--12--12-12-12--12-12-12-------------------------|
D |---------------------------------------------------------------------------|
        
e |--------------------------------|                    
B |--------------------------------|                    
G |----------2---------------------|                    
D |---3--5-----5-3-2---------------|
A |--------------------------------|
D |-0------------------------------|

e |---------------------------------------------------------------------------|                 
B |---------------------------------------------------------------------------|                 
G |-15--15-15-15--15-15-15--14-12--12-12-12--12-12-12-------------------------|                 
D |-15--15-15-15--15-15-15--14-12--12-12-12--12-12-12-------------------------|         
A |-13--13-13-13--13-13-13--12-10--10-10-10--10-10-10-------------------------|
D |---------------------------------------------------------------------------|

e|----------------------------|
B|----------------------------|
G|----------------------------|
D|----3-----2-------------0---|
A|--------------5-----3h5--5--|
D|-0----0-0---0----0--------0-|

e |---------------------------------------------------------------------------|                 
B |---------------------------------------------------------------------------|                 
G |-12--12-12-12--12-12-12--10-14--14-14-14--14-14-14-------------------------|                 
D |-12--12-12-12--12-12-12--10-14--14-14-14--14-14-14-------------------------|         
A |-10--10-10-10--10-10-10--8--12--12-12-12--12-12-12-------------------------|
D |---------------------------------------------------------------------------|

Chorus 1 

e |--------------------------------------------------|                  
B |--------------------------------------------------|                          
G |--10--10-10-10-10-10-10--12--12-12-12-12-12-12----|                  
D |--10--10-10-10-10-10-10--12--12-12-12-12-12-12----|
A |---8---8--8--8--8--8--8--10--10-10-10-10-10-10----|
D |--------------------------------------------------|

e |--------------------------------------------------|                  
B |--------------------------------------------------|                          
G |--14--14-14-14-14-14-14--17--17-17-17-17-17-17----|                  x2 (both sections)
D |--14--14-14-14-14-14-14--17--17-17-17-17-17-17----|
A |--12--12-12-12-12-12-12--15--15-15-15-15-15-15----|
D |--------------------------------------------------|

e |--------------------------------------------------|                  
B |--------------------------------------------------|                          
G |--10--10-10-10-10-10-10--12--12-12-12-12-12-12----|                  
D |--10--10-10-10-10-10-10--12--12-12-12-12-12-12----|
A |---8---8--8--8--8--8--8--10--10-10-10-10-10-10----|
D |--------------------------------------------------|

e |--------------------------------------------------|                  
B |--------------------------------------------------|                          
G |--12--12-12-12-12-12-12--14--14-14-14-14-14-14----|                  
D |--12--12-12-12-12-12-12--14--14-14-14-14-14-14----|
A |--10--10-10-10-10-10-10--12--12-12-12-12-12-12----|
D |--------------------------------------------------|

e |------------------------------------------------------------|                        
B |------------------------------------------------------------|                                
G |--10--10-10-10-10-10-10--12--12-12-12-12-12-12---------7----|                        
D |--10--10-10-10-10-10-10--12--12-12-12-12-12-12---------7----|
A |---8---8--8--8--8--8--8--10--10-10-10-10-10-10---------5----|
D |------------------------------------------------------------|

Verse 2
e|----------------------------|
B|----------------------------|
G|----------------------------|
D|----3-----2-------------0---|
A|--------------5-----3h5--5--|
D|-0----0-0---0----0--------0-|

e |---------------------------------------------------------------------------|                 
B |---------------------------------------------------------------------------|                 
G |-12--12-12-12--12-12-12--10-14--14-14-14--14-14-14-------------------------|                 
D |-12--12-12-12--12-12-12--10-14--14-14-14--14-14-14-------------------------|         x2 (both sections)
A |-10--10-10-10--10-10-10--8--12--12-12-12--12-12-12-------------------------|
D |---------------------------------------------------------------------------|
        
e |--------------------------------|                    
B |--------------------------------|                    
G |----------2---------------------|                    
D |---3--5-----5-3-2---------------|
A |--------------------------------|
D |-0------------------------------|

e |---------------------------------------------------------------------------|                 
B |---------------------------------------------------------------------------|                 
G |-15--15-15-15--15-15-15--14-17--17-17-17--17-17-17-------------------------|                 
D |-15--15-15-15--15-15-15--14-17--17-17-17--17-17-17-------------------------|         
A |-13--13-13-13--13-13-13--12-15--15-15-15--15-15-15-------------------------|
D |---------------------------------------------------------------------------|

e|----------------------------|
B|----------------------------|
G|----------------------------|
D|----3-----2-------------0---|
A|--------------5-----3h5--5--|
D|-0----0-0---0----0--------0-|

e |---------------------------------------------------------------------------|                 
B |---------------------------------------------------------------------------|                 
G |-12--12-12-12--12-12-12--10-14--14-14-14--14-14-14-------------------------|                 
D |-12--12-12-12--12-12-12--10-14--14-14-14--14-14-14-------------------------|         
A |-10--10-10-10--10-10-10--8--12--12-12-12--12-12-12-------------------------|
D |---------------------------------------------------------------------------|
Chorus 2
(same as before, without the final chord)
e |--------------------------------------------------|                  
B |--------------------------------------------------|                          
G |--10--10-10-10-10-10-10--12--12-12-12-12-12-12----|                  
D |--10--10-10-10-10-10-10--12--12-12-12-12-12-12----|
A |---8---8--8--8--8--8--8--10--10-10-10-10-10-10----|
D |--------------------------------------------------|

e |--------------------------------------------------|                  
B |--------------------------------------------------|                          
G |--14--14-14-14-14-14-14--17--17-17-17-17-17-17----|                  x2 (both sections)
D |--14--14-14-14-14-14-14--17--17-17-17-17-17-17----|
A |--12--12-12-12-12-12-12--15--15-15-15-15-15-15----|
D |--------------------------------------------------|

e |--------------------------------------------------|                  
B |--------------------------------------------------|                          
G |--10--10-10-10-10-10-10--12--12-12-12-12-12-12----|                  
D |--10--10-10-10-10-10-10--12--12-12-12-12-12-12----|
A |---8---8--8--8--8--8--8--10--10-10-10-10-10-10----|
D |--------------------------------------------------|

e |--------------------------------------------------|                  
B |--------------------------------------------------|                          
G |--12--12-12-12-12-12-12--14--14-14-14-14-14-14----|                  
D |--12--12-12-12-12-12-12--14--14-14-14-14-14-14----|
A |--10--10-10-10-10-10-10--12--12-12-12-12-12-12----|
D |--------------------------------------------------|

e |--------------------------------------------------|                  
B |--------------------------------------------------|                          
G |--10--10-10-10-10-10-10--12--12-12-12-12-12-12----|                  
D |--10--10-10-10-10-10-10--12--12-12-12-12-12-12----|
A |---8---8--8--8--8--8--8--10--10-10-10-10-10-10----|
D |--------------------------------------------------|

Then
e |----------------------------------------------------|                        
B |----------------------------------------------------|                        
G |----------------------------------------------------|                        
D |-10/12--10/14--10/14--10/12--10/12--10/14--10/15----|
A |----------------------------------------------------|
D |----------------------------------------------------|

e |------------------------------------------------------------|                        
B |------------------------------------------------------------|                        
G |---------------------------------------------------17--19---|                        
D |-10/17--10/19--10/17--10/15--10/14--10/19--10/17------(19)--|
A |------------------------------------------------------(17)--|
D |------------------------------------------------------------|

Then 
e |-------------------------------------------------------------------------|                   
B |-------------------------------------------------------------------------|                   
G |-------------------------------------------------------------------------|                   
D |-12--12-10/12-12--14-14-10/12-12--12--10/12-12--14-14-10-10--10-8/10-10--|
A |-------------------------------------------------------------------------|
D |-------------------------------------------------------------------------|

e |-------------------------------------|                       
B |-------------------------------------|                       
G |-------------------------------------|                       
D |-14-14---10/12-12-12/14\12-----------|                       x2 (both sections)
A |---------------------------12--------|
D |-------------------------------------|

Chorus 3
e |-------------------------------------------------------------------------|                   
B |-------------------------------------------------------------------------|                   
G |-------------------------------------------------------------------------|                   
D |-------------------------------------------------------------------------|   
A |-(0)-0-7-0-7h8---0-8-0-8h10---0-10-0-10h12---15-15-15-15-12-12-10--------|   x2
D |-------------------------------------------------------------------------|

e |-------------------------------------------------------------------------|                   
B |-------------------------------------------------------------------------|                   
G |-------------------------------------------------------------------------|                   
D |-------------------------------------------------------------------------|   
A |-(0)-0-7-0-7h8---0-8-0-8h10---0-10-0-10h12---0-10-0-10h12----------------|   
D |-------------------------------------------------------------------------|

e |----------------------------------------------------||                       
B |----------------------------------------------------||                       
G |-----------------------------------7----------------||                       
D |-----------------------------------7----------------||       
A |-(0)-0-7-0-7h8---8-8-8-8-7-7-5-5-5-5-(hold)---------||       
D |----------------------------------------------------||



************************************

| /   slide up
| \   slide down
| h   hammer-on
| p   pull-off
| ~   vibrato
| +   harmonic
| x   Mute note
| b   Bend
| pb  Pre-bend
| br  Bend release
| pbr Pre-bend release
| brb Bend release bend

************************************
Добавлено: 07.11.2015
Другие материалы по этой песне:
  • Аккорды и текст

Страница создана 07.11.2015
http://primanota.ru/drenge/woods-chords.htm
Привет, Гость.
Предлагаем пройти революционный курс по гитаре.
Подарок от PrimaNota.Ru, забирай!