PrimaNota.ru - самый крупный в мире бесплатный архив песенных текстов, аккордов, табулатур и нот


Drenge - Standing In The Cold - таба, видео

Регистрация Запомнить меня
Войти через:  Facebook Google Twitter Vk Yandex Mail.ru

Drenge - Standing In The Cold - таба, видео

Печатать
Просмотров: 70
Song: Standing In The Cold
Artist: Drenge
Album: Undertow
=============================
www.drenge.co.uk
www.drenge.tumblr.com
www.instagram.com/drengedrenge
www.facebook.com/drengeboys
www.soundcloud.com/drenge
www.youtube.com/user/drengeband
www.twitter.com/drenge
=============================




          Bm7no5 (chord in the pre-chorus and bridge)
        e--------
        B-------- 
        G---2----
        D---0----
        A---2----
        E--------



        =Verse 1=

00:00   e------------------|------------------|------------------|------------------|
        B------------------|------------------|------------------|------------------| 
        G----1-000h2p0-----|----1-000h2p0-----|----1-000h2p0-----|----1-000h2p0-----|
        D----2-222---2-----|----2-222---2-----|----2-222---2-----|----2-222---2-----|
        A----2---------3-2-|----2---------3-2-|----2---------3-2-|----2---------3-2-|
        E-0--0-------------|-0--0-------------|-0--0-------------|-0--0-------------|

        e------------------|------------------|------------------|------------------|
        B------------------|------------------|------------------|------------------| 
        G----1-000h2p0-----|----1-000h2p0-----|----1-000h2p0-----|----1-000h2p0-----|
        D----2-222---2-----|----2-222---2-----|----2-222---2-----|----2-222---2-----|
        A----2---------3-2-|----2---------3-2-|----2---------3-2-|----2---------3-2-|
        E-0--0-------------|-0--0-------------|-0--0-------------|-0--0-------------|


        =Pre-Chorus=

00:29   e-----------------|-----------------|-----------------|-----------------|
        B-1-1-1-1-1-1---1-|-----------------|-1-1-1-1-1-1---1-|-----------------|
        G-2-2-2-2-2-2-2-0-|-----------------|-2-2-2-2-2-2-2-0-|-----------------|
        D-2-2-2-2-2-2-0-2-|-----------------|-2-2-2-2-2-2-0-2-|-----------------|
        A-0-0-0-0-0-0-2-3-|-----------------|-0-0-0-0-0-0-2-3-|-----------------|
        E-----------------|-----------------|-----------------|-----------------|
                                                                        C   C   G  G
                                                                       But you had my..
        e-----------------|-----------------|-----------------|-------------------|
        B-1-1-1-1-1-1---1-|-----------------|-1-1-1-1-1-1---1-|-------------------|
        G-2-2-2-2-2-2-2-0-|-----------------|-2-2-2-2-2-2-2-0-|---------0-0-------|
        D-2-2-2-2-2-2-0-2-|-----------------|-2-2-2-2-2-2-0-2-|---------2-2-0-0---|
        A-0-0-0-0-0-0-2-3-|-----------------|-0-0-0-0-0-0-2-3-|---------3-3-2-2---|
        E-----------------|-----------------|-----------------|-------------3-3-0-|


        =Chorus=
                       E
00:56   But you had my soul
         C              E
        Standing in the cold
        C                 E
        Trying to get back home
        C              E
        Frozen to the bone
          C         E
        I wanted to know
          G         E
        I wanted to know


        =Verse 2=

01:20   e------------------|------------------|------------------|------------------|
        B------------------|------------------|------------------|------------------| 
        G----1-000h2p0-----|----1-000h2p0-----|----1-000h2p0-----|----1-000h2p0-----|
        D----2-222---2-----|----2-222---2-----|----2-222---2-----|----2-222---2-----|
        A----2---------3-2-|----2---------3-2-|----2---------3-2-|----2---------3-2-|
        E-0--0-------------|-0--0-------------|-0--0-------------|-0--0-------------|

        e------------------|------------------|------------------|------------------|
        B------------------|------------------|------------------|------------------| 
        G----1-000h2p0-----|----1-000h2p0-----|----1-000h2p0-----|----1-000h2p0-----|
        D----2-222---2-----|----2-222---2-----|----2-222---2-----|----2-222---2-----|
        A----2---------3-2-|----2---------3-2-|----2---------3-2-|----2---------3-2-|
        E-0--0-------------|-0--0-------------|-0--0-------------|-0--0-------------|


        =Pre-Chorus=

01:50   e-----------------|-----------------|-----------------|-----------------|
        B-1-1-1-1-1-1---1-|-----------------|-1-1-1-1-1-1---1-|-----------------|
        G-2-2-2-2-2-2-2-0-|-----------------|-2-2-2-2-2-2-2-0-|-----------------|
        D-2-2-2-2-2-2-0-2-|-----------------|-2-2-2-2-2-2-0-2-|-----------------|
        A-0-0-0-0-0-0-2-3-|-----------------|-0-0-0-0-0-0-2-3-|-----------------|
        E-----------------|-----------------|-----------------|-----------------|
                                                                        C   C   G  G
                                                                       But you had my..
        e-----------------|-----------------|-----------------|-------------------|
        B-1-1-1-1-1-1---1-|-----------------|-1-1-1-1-1-1---1-|-------------------|
        G-2-2-2-2-2-2-2-0-|-----------------|-2-2-2-2-2-2-2-0-|---------0-0-------|
        D-2-2-2-2-2-2-0-2-|-----------------|-2-2-2-2-2-2-0-2-|---------2-2-0-0---|
        A-0-0-0-0-0-0-2-3-|-----------------|-0-0-0-0-0-0-2-3-|---------3-3-2-2---|
        E-----------------|-----------------|-----------------|-------------3-3-0-|


        =Chorus=
                       E
02:18   But you had my soul
         C              E
        Standing in the cold
        C                 E
        Trying to get back home
        C              E
        Frozen to the bone
          C         E
        I wanted to know
          G         E
        I wanted to know


        =Solo=
       ...know
02:37   e-------------------------------|-----------12-----------------|
        B-------------------------------|--------12-12----------13-12--|
        G-------------------------------|--9--12--------5--9/12--------|
        D-------------5--7--7h8p7-5-----|-10------------7--------------|
        A---------5-7---------------7-0-|-10------------7--------------|
        E-0-----------------------------|--8------------5--------------|

        e----------------------|---------------------------|-------------------------|
        B----------------------|------8p7-0-------5\3/5-0--|-------------------------|
        G----------------------|--9---------0--5-----------|--------------4h5-7-5-4--|
        D----------5~~----4----|-10------------7-----------|----------5h7------------|
        A-7----5/7----------0--|-10------------7-----------|-7----5h7----------------|
        E-0--------------------|--8------------5-----------|-0-----------------------||

        e----------------|-----------------------|----------------------|
        B----------------|-----------------------|----------------------|
        G--9------5------|-----------------------|----------------------|
        D-10------7------|-----------------------|----------------------|
        A-10------7------|------5h7-5------------|-------------5---5-7--|
        E--8------5------|-0-----------7-5-5h7-5-|-3----3/5h7---h7------|


        =Verse 3=
              I wait...                          My skin...      
03:08   e-----------------|----------------|------------------|----------------|
        B-----------------|----------------|------------------|----------------|
        G-----------------|----------------|------------------|----------------|
        D-----------------|----------------|------------------|----------------|
        A-7---------------|----------8-8-8-|-7----------------|----------8-8-8-|
        E-0---------------|----------0-0-0-|-0----------------|----------0-0-0-|


        =Pre-Chorus=
                you wanted...                     I was half..   
03:37   e-----------------|-----------------|-----------------|-----------------|
        B-1-1-1-1-1-1---1-|-----------------|-1-1-1-1-1-1---1-|-----------------|
        G-2-2-2-2-2-2-2-0-|-----------------|-2-2-2-2-2-2-2-0-|-----------------|
        D-2-2-2-2-2-2-0-2-|-----------------|-2-2-2-2-2-2-0-2-|-----------------|
        A-0-0-0-0-0-0-2-3-|-----------------|-0-0-0-0-0-0-2-3-|-----------------|
        E-----------------|-----------------|-----------------|-----------------|
                                                                        
              Then I found...                  It was covered..  someone got there first     
        e-----------------|-----------------|-----------------|-------------------|
        B-1-1-1-1-1-1---1-|-----------------|-1---------------|-1-----------------|
        G-2-2-2-2-2-2-2-0-|-----------------|-1---------------|-3-----------------|
        D-2-2-2-2-2-2-0-2-|-----------------|-2---------------|-2-----------------|
        A-0-0-0-0-0-0-2-3-|-----------------|-3---------------|-3-----------------|
        E-----------------|-----------------|-----------------|-------------------|


        =Bridge=
      F                    Fm                              E      E7
04:07   I was running away   Because I thought we were in love          
      Am                Bm7no5     C                E
        Then I saw your eyes       but they said it all

        (this is how you play the Am Bm7no5 part)

               then..yoour eyes
        e----------------------|
        B------1--1------------|
        G-2----2---------------|
        D-2----2---------------|
        A-0----------2--0--(2)-|
        D----------------------|


        =Chorus=
         C              E
04:30   Standing in the cold
        C                 E
        Trying to get back home
        C              E
        Frozen to the bone
          G         E
        I wanted to know
                 C                E
        Why I'm screaming in the dark
        C                  E            
        My boyfriend won't call
         C              E
        Standing in the cold
          C         E
        I wanted to know
          G         E   
        I wanted to know




                               =========================================
                                don't forget to rate! that helps a lot!
                               =========================================
                                                  &    
                             =============================================
                             give me credit if you're using any of my tabs
                             =============================================


¨¨¨¨¨¨¨¨¨¨¨¨¨¨¨¨¨¨¨¨¨¨¨¨¨¨¨¨¨¨¨¨¨¨
-www.confort-reciclaclo.tumblr.com
-www.facebook.com/I.Really.Sux
-www.last.fm/user/mr_ahab
-f.alejandro27@gmail.com
Добавлено: 07.11.2015
Другие материалы по этой песне:
  • Аккорды и текст

Страница создана 07.11.2015
http://primanota.ru/drenge/standing-in-cold-chords.htm
Привет, Гость.
Предлагаем пройти революционный курс по гитаре.
Подарок от PrimaNota.Ru, забирай!