PrimaNota.ru - самый крупный в мире бесплатный архив песенных текстов, аккордов, табулатур и нот


Drenge - The Snake - таба, видео

Регистрация Запомнить меня
Войти через:  Facebook Google Twitter Vk Yandex Mail.ru

Drenge - The Snake - таба, видео

Печатать
Просмотров: 62
-------------------------------------------------------------------------------
                             THE SNAKE - Drenge
-------------------------------------------------------------------------------
Tabbed by: James Souter
Album: Undertow
Tuning: Drop D

Intro/verse 1
e |--------------|--------------|
B |----3---------|----3---------|
G |----2---------|----2---------|     x3
D |--------------|--------------|
A |-0----0-2h3-3-|-0----0-2h3-3-|  
D |-0----0-2h3-3-|-0----0-2h3-3-|

e |--------------|---------------|-----------------|----------------|
B |----3---------|----3----------|-----------------|----------------|
G |----2---------|----2----------|-----------------|----------------|
D |--------------|---------------|----5------------|----5-----------|
A |-0----0-2h3-3-|-0----0-2h3-3/-|-5--5---0-2h3-3/-|-5--5---0-2h3-3-|
D |-0----0-2h3-3-|-0----0-2h3-3/-|-5--5---0-2h3-3/-|-5--5---0-2h3-3-|

e |--------------|--------------|
B |----3---------|----3---------|
G |----2---------|----2---------|     x2
D |--------------|--------------|
A |-0----0-2h3-3-|-0----0-2h3-3-|  
D |-0----0-2h3-3-|-0----0-2h3-3-|

e |--------------|---------------|-----------------|----------------|
B |----3---------|----3----------|-----------------|----------------|
G |----2---------|----2----------|-----------------|----------------|
D |--------------|---------------|----5------------|----5-----------|
A |-0----0-2h3-3-|-0----0-2h3-3/-|-5--5---0-2h3-3/-|-5--5---0-2h3-3-|
D |-0----0-2h3-3-|-0----0-2h3-3/-|-5--5---0-2h3-3/-|-5--5---0-2h3-3-|

e |--------------|--------------|
B |----3---------|----3---------|
G |----2---------|----2---------|     
D |--------------|--------------|
A |-0----0-2h3-3-|-0----0-2h3-3-|  
D |-0----0-2h3-3-|-0----0-2h3-3-|

e |---------------|------------|
B |---------------|------------|
G |---------------|------------|
D |-5--5-5-6--6-6-|3------3-2-0|   x3
A |-5--5-5-6--6-6-|3------3-2-0|
D |-5--5-5-6--6-6-|3------3-2-0|

e |---------------|-----------------|
B |---------------|-----------------|
G |---------------|-----------------|
D |-5--5-5-6--6-6-|7--7-7-7-7-7-7-7-|  
A |-5--5-5-6--6-6-|7--7-7-7-7-7-7-7-|
D |-5--5-5-6--6-6-|7--7-7-7-7-7-7-7-|

Chorus 1
e |-----------|-----------|------------|---------------|
B |-----------|-----------|------------|---------------|
G |-----------|-----------|------------|---------------|
D |-0--0-0-6-7|-3--3-3-7-8|-8--8-8-8-10|-5--5-5-10-8-7-|         x3
A |-0--0-0----|-3--3-3----|-8--8-8-----|-5--5-5--------|
D |-0--0-0----|-3--3-3----|-8--8-8-----|-5--5-5--------|

e |--------------|---------------|
B |--------------|---------------|
G |--------------|---------------|
D |-0--0-0-7-----|-3--3-3--------|      x2 
A |-0--0-0---10-8|-3--3-3-5-7-8--|
D |-0--0-0-------|-3--3-3--------|

(On Undertow the next section is played on bass, otherwise you can just 
use the guitar intro riff.)
e |-------------------|
B |-------------------|
G |-------------------|
D |-------------------| x4
A |--(5)--------------|
D |-0---0-2-3-3-0-----|

Verse 2
e |--------------|--------------|
B |----3---------|----3---------|
G |----2---------|----2---------|     
D |--------------|--------------|
A |-0----0-2h3-3-|-0----0-2h3-3-|  
D |-0----0-2h3-3-|-0----0-2h3-3-|

e |--------------|---------------|-----------------|----------------|
B |----3---------|----3----------|-----------------|----------------|
G |----2---------|----2----------|-----------------|----------------|
D |--------------|---------------|----5------------|----5-----------|
A |-0----0-2h3-3-|-0----0-2h3-3/-|-5--5---0-2h3-3/-|-5--5---0-2h3-3-|
D |-0----0-2h3-3-|-0----0-2h3-3/-|-5--5---0-2h3-3/-|-5--5---0-2h3-3-|

e |--------------|--------------|
B |----3---------|----3---------|
G |----2---------|----2---------|     x2
D |--------------|--------------|
A |-0----0-2h3-3-|-0----0-2h3-3-|  
D |-0----0-2h3-3-|-0----0-2h3-3-|

e |--------------|---------------|-----------------|----------------|
B |----3---------|----3----------|-----------------|----------------|
G |----2---------|----2----------|-----------------|----------------|
D |--------------|---------------|----5------------|----5-----------|
A |-0----0-2h3-3-|-0----0-2h3-3/-|-5--5---0-2h3-3/-|-5--5---0-2h3-3-|
D |-0----0-2h3-3-|-0----0-2h3-3/-|-5--5---0-2h3-3/-|-5--5---0-2h3-3-|

e |--------------|--------------|
B |----3---------|----3---------|
G |----2---------|----2---------|     
D |--------------|--------------|
A |-0----0-2h3-3-|-0----0-2h3-3-|  
D |-0----0-2h3-3-|-0----0-2h3-3-|

e |---------------|------------|
B |---------------|------------|
G |---------------|------------|
D |-5--5-5-6--6-6-|3------3-2-0|   x3
A |-5--5-5-6--6-6-|3------3-2-0|
D |-5--5-5-6--6-6-|3------3-2-0|

e |---------------|-----------------|
B |---------------|-----------------|
G |---------------|-----------------|
D |-5--5-5-6--6-6-|7--7-7-7-7-7-7-7-|  
A |-5--5-5-6--6-6-|7--7-7-7-7-7-7-7-|
D |-5--5-5-6--6-6-|7--7-7-7-7-7-7-7-|

Chorus 2
e |-----------|-----------|------------|---------------|
B |-----------|-----------|------------|---------------|
G |-----------|-----------|------------|---------------|
D |-0--0-0-6-7|-3--3-3-7-8|-8--8-8-8-10|-5--5-5-10-8-7-|         x3
A |-0--0-0----|-3--3-3----|-8--8-8-----|-5--5-5--------|
D |-0--0-0----|-3--3-3----|-8--8-8-----|-5--5-5--------|

e |--------------|---------------|
B |--------------|---------------|
G |--------------|---------------|
D |-0--0-0-7-----|-3--3-3--------|      x2 
A |-0--0-0---10-8|-3--3-3-5-7-8--|
D |-0--0-0-------|-3--3-3--------|

Bridge/Middle 8/Whatever
e|-------------|------------|
B|-------------|------------|
G|---2------0--|------------|
D|-0---0-2/3-0-|------------| x8      
A|-------------|-5--3/5-5\3-|
D|-------------|------------|

e|-----------|---------------|
B|-----------|---------------|
G|---2------0|-0-0-0-0-0-0-0-|
D|-0---0-2/3-|3-3-3-3-3-3-3--| 
A|-----------|---------------|
D|-----------|---------------|

e |---------------|------------|
B |---------------|------------|
G |---------------|------------|
D |-5--5-5-6--6-6-|3------3-2-0|   x3
A |-5--5-5-6--6-6-|3------3-2-0|
D |-5--5-5-6--6-6-|3------3-2-0|

e |---------------|-----------------|
B |---------------|-----------------|
G |---------------|-----------------|
D |-5--5-5-6--6-6-|7--7-7-7-7-7-7-7-|  
A |-5--5-5-6--6-6-|7--7-7-7-7-7-7-7-|
D |-5--5-5-6--6-6-|7--7-7-7-7-7-7-7-|

Chorus 3
e |-----------|-----------|------------|---------------|
B |-----------|-----------|------------|---------------|
G |-----------|-----------|------------|---------------|
D |-0--0-0-6-7|-3--3-3-7-8|-8--8-8-8-10|-5--5-5-10-8-7-|         x3
A |-0--0-0----|-3--3-3----|-8--8-8-----|-5--5-5--------|
D |-0--0-0----|-3--3-3----|-8--8-8-----|-5--5-5--------|

e |--------------|---------------|
B |--------------|---------------|
G |--------------|---------------|
D |-0--0-0-7-----|-3--3-3--------|      x2 
A |-0--0-0---10-8|-3--3-3-5-7-8--|
D |-0--0-0-------|-3--3-3--------|

e |------|
B |------|
G |------|
D |-0----|       
A |-0----| (let it ring)
D |-0----|

************************************

| /   slide up
| \   slide down
| h   hammer-on
| p   pull-off
| ~   vibrato
| +   harmonic
| x   Mute note
| b   Bend
| pb  Pre-bend
| br  Bend release
| pbr Pre-bend release
| brb Bend release bend

************************************
Добавлено: 07.11.2015
Другие материалы по этой песне:
  • Аккорды и текст

Страница создана 07.11.2015
http://primanota.ru/drenge/snake-chords.htm
Привет, Гость.
Предлагаем пройти революционный курс по гитаре.
Подарок от PrimaNota.Ru, забирай!