PrimaNota.ru - самый крупный в мире бесплатный архив песенных текстов, аккордов, табулатур и нот


Drenge - Side By Side - таба, видео

Регистрация Запомнить меня
Войти через:  Facebook Google Twitter Vk Yandex Mail.ru

Drenge - Side By Side - таба, видео

Печатать
Просмотров: 161
Уроки эстрадного вокала в Санкт-Петербурге
Song: Side By Side
Artist: Drenge
Album: Undertow
=============================
www.drenge.co.uk
www.drenge.tumblr.com
www.instagram.com/drengedrenge
www.facebook.com/drengeboys
www.soundcloud.com/drenge
www.youtube.com/user/drengeband
www.twitter.com/drenge
=============================


                                                                                      Uploaded:16/04/2015
        Tuning: Drop D

        =Intro=

        *clapping intensifies*

00:05   e---------------------------------|---------------------------------|
        B---------------------------------|---------------------------------| 2x
        G---------------------------------|---------------------------------|
        D---------------------------------|---------------------------------|
        A-0-0-0-0-0-0-0-0-0-0-0-0-0-0-0-0-|-0-0-0-0-0-0-0-0-0-0-0-0-0-0-0-0-|
        D---------------------------------|---------------------------------|

        e--------------------------------|--------------------------------|
        B--------------------------------|--------------------------------|
        G--------------------------------|--------------------------------|
        D--------------------------------|--------------------------------|
        A-0-0-0-0-0-0-0-0-0-0-0-0-0-0-1--|-3--3-3-3-3-3-3-3-3-3-3-3-1-3-1-|
        D--------------------------------|--------------------------------|

        e-------------------------------|--------------------------------|
        B-------------------------------|--------------------------------| 3x
        G-------------------------------|--------------------------------|
        D-------------------------------|--------------------------------|
        A-0--0-0-0-0-0-0-0-0-0-0-0-0-1--|-3--3-3-3-3-3-3-3-3-3-3-3-1-3-1-|
        D-------------------------------|--------------------------------|
        

        =Verse=
        
00:34   e-------------------------------|--------------------------------|
        B-------------------------------|--------------------------------| 2x
        G-------------------------------|--------------------------------|
        D-------------------------------|--------------------------------|
        A-0--0-0-0-0-0-0-0-0-0-0-0-0-1--|-3--3-3-3-3-3-3-3-3-3-3-3-1-3-1-|
        D-------------------------------|--------------------------------|

        e-------------------------------|---------------------------------------------|
        B-------------------------------|---------------------------------------------| 2x
        G-------------------------------|---------------------------------------------|
        D-7--7-7-7-7-7-7-7-7-7-7-7-7-8--|-10--10-10-10-10-10-10-10-10-10-10-10-8-10-8-|
        A-7--7-7-7-7-7-7-7-7-7-7-7-7-8--|-10--10-10-10-10-10-10-10-10-10-10-10-8-10-8-|
        D-7--7-7-7-7-7-7-7-7-7-7-7-7-8--|-10--10-10-10-10-10-10-10-10-10-10-10-8-10-8-|

 
        =Chorus=      live, Eoin plays this part like this
                                                
00:54   e----------------/|-10-10-10-10-10-10-10-10-10-|-----------------|-----------------|
        B-----------------|--0--0--0--0--0--0--0--0--0-|-----------------|-----------------| 3x
        G-----------------|--0--0--0--0--0--0--0--0--0-|-----------------|-----------------|
        D-3-3-3-3-3-3-3-3-|--0--0--0--0--0--0--0--0--0-|-7-7-7-7-7-7-7-7-|-7-7-7-7-7-7-7-7-|
        A-3-3-3-3-3-3-3-3-|--0--0--0--0--0--0--0--0--0-|-7-7-7-7-7-7-7-7-|-7-7-7-7-7-7-7-7-|
        D-3-3-3-3-3-3-3-3-|--0--0--0--0--0--0--0--0--0-|-7-7-7-7-7-7-7-7-|-7-7-7-7-7-7-7-7-|

        e----------------/|-10-10-10-10-10-10-10-10-10-|
        B-----------------|--0--0--0--0--0--0--0--0--0-|
        G-----------------|--0--0--0--0--0--0--0--0--0-|
        D-3-3-3-3-3-3-3-3-|--0--0--0--0--0--0--0--0--0-|
        A-3-3-3-3-3-3-3-3-|--0--0--0--0--0--0--0--0--0-|
        D-3-3-3-3-3-3-3-3-|--0--0--0--0--0--0--0--0--0-|

        e------------------------------|------------------------------|
        B------------------------------|------------------------------| 2x
        G------------------------------|------------------------------|
        D-7--7-7-7-7-7-7-7-7-7-7-7-8-8-|-7--7-7-7-7-7-7-7-7-7-7-7-8-8-|
        A-7--7-7-7-7-7-7-7-7-7-7-7-8-8-|-7--7-7-7-7-7-7-7-7-7-7-7-8-8-|
        D-7--7-7-7-7-7-7-7-7-7-7-7-8-8-|-7--7-7-7-7-7-7-7-7-7-7-7-8-8-|


        =Verse=

01:21   e-------------------------------|--------------------------------|
        B-------------------------------|--------------------------------| 2x
        G-------------------------------|--------------------------------|
        D-------------------------------|--------------------------------|
        A-0--0-0-0-0-0-0-0-0-0-0-0-0-1--|-3--3-3-3-3-3-3-3-3-3-3-3-1-3-1-|
        D-------------------------------|--------------------------------|

        e-------------------------------|---------------------------------------------|
        B-------------------------------|---------------------------------------------| 2x
        G-------------------------------|---------------------------------------------|
        D-7--7-7-7-7-7-7-7-7-7-7-7-7-8--|-10--10-10-10-10-10-10-10-10-10-10-10-8-10-8-|
        A-7--7-7-7-7-7-7-7-7-7-7-7-7-8--|-10--10-10-10-10-10-10-10-10-10-10-10-8-10-8-|
        D-7--7-7-7-7-7-7-7-7-7-7-7-7-8--|-10--10-10-10-10-10-10-10-10-10-10-10-8-10-8-|


        =Chorus=

01:42   e----------------/|-10-10-10-10-10-10-10-10-10-|-----------------|-----------------|
        B-----------------|--0--0--0--0--0--0--0--0--0-|-----------------|-----------------| 3x
        G-----------------|--0--0--0--0--0--0--0--0--0-|-----------------|-----------------|
        D-3-3-3-3-3-3-3-3-|--0--0--0--0--0--0--0--0--0-|-7-7-7-7-7-7-7-7-|-7-7-7-7-7-7-7-7-|
        A-3-3-3-3-3-3-3-3-|--0--0--0--0--0--0--0--0--0-|-7-7-7-7-7-7-7-7-|-7-7-7-7-7-7-7-7-|
        D-3-3-3-3-3-3-3-3-|--0--0--0--0--0--0--0--0--0-|-7-7-7-7-7-7-7-7-|-7-7-7-7-7-7-7-7-|

        e----------------/|-10-10-10-10-10-10-10-10-10-|
        B-----------------|--0--0--0--0--0--0--0--0--0-|
        G-----------------|--0--0--0--0--0--0--0--0--0-|
        D-3-3-3-3-3-3-3-3-|--0--0--0--0--0--0--0--0--0-|
        A-3-3-3-3-3-3-3-3-|--0--0--0--0--0--0--0--0--0-|
        D-3-3-3-3-3-3-3-3-|--0--0--0--0--0--0--0--0--0-|


        =Bridge=

        e-----------------------------|-------------------------------|
        B-----------------------------|-------------------------------|
        G-----------------------------|-------------------------------|
        D-7--7-7-7--7-7-7--7-7-7--8-8-|-7--7-7-7--7-7-7--7-7-7--10-10-|
        A-7--7-7-7--7-7-7--7-7-7--8-8-|-7--7-7-7--7-7-7--7-7-7--10-10-|
        D-7--7-7-7--7-7-7--7-7-7--8-8-|-7--7-7-7--7-7-7--7-7-7--10-10-|

        e-----------------------------|-----------------------------|
        B-----------------------------|-----------------------------| 
        G-----------------------------|-----------------------------|
        D-7--7-7-7--7-7-7--7-7-7--8-8-|-7--7-7-7--7-7-7--7-7-7--8-8-|
        A-7--7-7-7--7-7-7--7-7-7--8-8-|-7--7-7-7--7-7-7--7-7-7--8-8-|
        D-7--7-7-7--7-7-7--7-7-7--8-8-|-7--7-7-7--7-7-7--7-7-7--8-8-|


        =Solo=

02:09   e------------------------------------------|------------------------------------------|
        B------------------------------------------|------------------------------------------|
        G---------6-7-9-7-6-7-6--------------------|---------6--------------------------------|
        D-----7-8---------------8-7-5--------------|-----7-8---8-7-5-7br-5-3-2-0-1-3--3-3-0-0-|
        A-0-0-------------------------3-3-3--1-1-1-|-0-0-------------------------1-3--3-3-0-0-|
        D------------------------------------------|-----------------------------1-3--3-3-0-0-|

02:19   e-----------------------|-------------------------|-----------------------|-------------------------|
        B-10--10-10-10-10-10-10-|-10-10-10-10-10-10-11-11-|-10--10-10-10-10-10-10-|-10-10-10-10-10-10-11-11-| 2x
        G-----------------------|-------------------------|-----------------------|-------------------------|
        D-----------------------|-------------------------|-----------------------|-------------------------|
        A-----------------------|-------------------------|-----------------------|-------------------------|
        D-----------------------|-------------------------|-----------------------|-------------------------|

        e-----------------------|-----------------------|-----------------------|-----------------------|
        B-10--10-10-10-10-11-11-|-10--10-10-10-10-11-11-|-10--10-10-10-10-11-11-|-10--10-10-10-10-10-10-| 2x
        G-----------------------|-----------------------|-----------------------|-----------------------|
        D-----------------------|-----------------------|-----------------------|-----------------------|
        A-----------------------|-----------------------|-----------------------|-----------------------|
        D-----------------------|-----------------------|-----------------------|-----------------------|


        =Chorus=

02:59   e----------------/|-10-10-10-10-10-10-10-10-10-|-----------------|-----------------|
        B-----------------|--0--0--0--0--0--0--0--0--0-|-----------------|-----------------| 3x
        G-----------------|--0--0--0--0--0--0--0--0--0-|-----------------|-----------------|
        D-3-3-3-3-3-3-3-3-|--0--0--0--0--0--0--0--0--0-|-7-7-7-7-7-7-7-7-|-7-7-7-7-7-7-7-7-|
        A-3-3-3-3-3-3-3-3-|--0--0--0--0--0--0--0--0--0-|-7-7-7-7-7-7-7-7-|-7-7-7-7-7-7-7-7-|
        D-3-3-3-3-3-3-3-3-|--0--0--0--0--0--0--0--0--0-|-7-7-7-7-7-7-7-7-|-7-7-7-7-7-7-7-7-|

        e----------------/|-10-10-10-10-10-10-10-10-10-|
        B-----------------|--0--0--0--0--0--0--0--0--0-|
        G-----------------|--0--0--0--0--0--0--0--0--0-|
        D-3-3-3-3-3-3-3-3-|--0--0--0--0--0--0--0--0--0-|
        A-3-3-3-3-3-3-3-3-|--0--0--0--0--0--0--0--0--0-|
        D-3-3-3-3-3-3-3-3-|--0--0--0--0--0--0--0--0--0-|

        e------------------------------|------------------------------|
        B------------------------------|------------------------------| 2x
        G------------------------------|------------------------------|
        D-7--7-7-7-7-7-7-7-7-7-7-7-8-8-|-7--7-7-7-7-7-7-7-7-7-7-7-8-8-|
        A-7--7-7-7-7-7-7-7-7-7-7-7-8-8-|-7--7-7-7-7-7-7-7-7-7-7-7-8-8-|
        D-7--7-7-7-7-7-7-7-7-7-7-7-8-8-|-7--7-7-7-7-7-7-7-7-7-7-7-8-8-|






                               =========================================
                                don't forget to rate! that helps a lot!
                               =========================================
                                                  &    
                             =============================================
                             give me credit if you're using any of my tabs
                             =============================================


¨¨¨¨¨¨¨¨¨¨¨¨¨¨¨¨¨¨¨¨¨¨¨¨¨¨¨¨¨¨¨¨¨¨
-www.confort-reciclaclo.tumblr.com
-www.facebook.com/I.Really.Sux
-www.last.fm/user/mr_ahab
-f.alejandro27@gmail.com
Добавлено: 07.11.2015
Другие материалы по этой песне:
  • Аккорды и текст

Страница создана 07.11.2015
http://primanota.ru/drenge/side-by-side-chords.htm
Привет, Гость.
Предлагаем пройти революционный курс по гитаре.
Подарок от PrimaNota.Ru, забирай!