PrimaNota.ru - самый крупный в мире бесплатный архив песенных текстов, аккордов, табулатур и нот


Drenge - Running Wild - таба, видео

Регистрация Запомнить меня
Войти через:  Facebook Google Twitter Vk Yandex Mail.ru

Drenge - Running Wild - таба, видео

Печатать
Просмотров: 42
Song: Running Wild
Artist: Drenge
Album: Undertow
=============================
www.drenge.co.uk
www.drenge.tumblr.com
www.instagram.com/drengedrenge
www.facebook.com/drengeboys
www.soundcloud.com/drenge
www.youtube.com/user/drengeband
www.twitter.com/drenge
=============================


                                                                                      Uploaded:21/04/2015
        Tuning: Drop D        

        =Intro=     (be careful with the timing/dashes)
           
00:00   e---------------------------------------------------------------|
        B-----------------------------0---------------------------------|
        G-----5-------5-------5---------------5-------5-------5---------|
        D---------0-------0-------0-------0-------0-------0-------0-----|
        A-5-----5-------5-------5-------5-------5-------5-------5-------|
        D-------------------------------------------------------------3-|
          
        e-------------------------------------------------------------------|
        B-------------------------------0-----------------------------------|
        G-------5-------5-------5---------------5-------5-------5-----------|
        D-------------------------------------------------------------3-3-3-|
        A-------------------------------------------------------------3-3-3-|
        D-0---0---0---0---0---0---0---0---0---0---0---0---0---0---0---3-3-3-|

        e---------------------------------------------------------------|
        B---------------------------0-----------------------------------|
        G-----5-------5-------5---------5-----5-------5-------5---------| 2x just this measure
        D---------------------------------------------------------3-3-3-|
        A---------------------------------------------------------3-3-3-|
        D-0-----0-0-----0-0-----0-0-------0-----0-0-----0-0-----0-3-3-3-|


        =Verse 1=

00:29   e-----------------------------------------------------------------|
        B---------------------------0-------------------------------0-----|
        G-----5-------5-------5---------5-----5-------5-------5---------5-| 
        D-----------------------------------------------------------------|
        A-----------------------------------------------------------------|
        D-0-----0-0-----0-0-----0-0-------0-----0-0-----0-0-----0-0-------|
                                                                                2x
        e---------------------------------------------------------------|
        B---------------------------0-----------------------------------|
        G-----5-------5-------5---------5-----5-------5-------5---------|
        D---------------------------------------------------------3-3-3-|
        A---------------------------------------------------------3-3-3-|
        D-0-----0-0-----0-0-----0-0-------0-----0-0-----0-0-----0-3-3-3-|


        =Solo=
                                         ----------3x---------- 
00:58   e------------------------------|-------------------------|-----------------------------|
        B------------------------------|-------------------------|-----------------------------|
        G------------------------------|----5-5-5-4--------------|-----------------------------|
        D--------------3h5-3h5-3-------|-0--4-4-4-4--3--3-3-3-5--|-------------3h5-3h5-3-------|
        A-5---0--3--5------------3--4--|-0--5-5-5-5--3--3-3-3-5--|-5--0--3--5------------3--4--|
        D------------------------------|-0-----------3--3-3-3-5--|-----------------------------|


        =Verse 2=

01:18   e-----------------------------------------------------------------|
        B---------------------------0-------------------------------0-----|
        G-----5-------5-------5---------5-----5-------5-------5---------5-| 
        D-----------------------------------------------------------------|
        A-----------------------------------------------------------------|
        D-0-----0-0-----0-0-----0-0-------0-----0-0-----0-0-----0-0-------|
                                                                                 2x
        e---------------------------------------------------------------|
        B---------------------------0-----------------------------------|
        G-----5-------5-------5---------5-----5-------5-------5---------|
        D---------------------------------------------------------3-3-3-|
        A-------------------------------------------------------0-3-3-3-|
        D-0-----0-0-----0-0-----0-0-------0-----0-0-----0-0-----0-3-3-3-|


        =Solo=
                                          ----------3x----------        
01:47   e-------------------------------|-------------------------|-------------------------------------------|
        B-------------------------------|----3-3-3-3--------------|-------------------------------------------|
        G-------------------------------|----5-5-5-4--------------|-----------------10h11-10h11-10-12-12br-10-|
        D--------------3h5-3h5-3--------|-0--4-4-4-4--3--3-3-3-5--|-12------10--12----------------------------|
        A-5---0--3--5-------------3--4--|-0--5-5-5-5--3--3-3-3-5--|-----12------------------------------------|
        D-------------------------------|-0-----------3--3-3-3-5--|-------------------------------------------|


        =Verse 3=
         PM
02:05   e------------------------------------------|------------------------------------------|
        B------------------------------------------|------------------------------------------|
        G------------------------------------------|------------------------------------------|
        D-0-12-12-0-0-12-12-0-0-12-12-0-10-10-11-0-|-0-12-12-0-0-12-12-0-0-12-12-0-15-15-15-0-|
        A-0-12-12-0-0-12-12-0-0-12-12-0-10-10-11-0-|-0-12-12-0-0-12-12-0-0-12-12-0-15-15-15-0-|
        D-0-12-12-0-0-12-12-0-0-12-12-0-10-10-11-0-|-0-12-12-0-0-12-12-0-0-12-12-0-15-15-15-0-|
        
        e------------------------------------------|------------------------------------------|
        B------------------------------------------|------------------------------------------|
        G------------------------------------------|------------------------------------------|
        D-0-12-12-0-0-12-12-0-0-12-12-0-10-10-11-0-|-0-12-12-0-0-12-12-0-0-12-12-0-10-10-11-0-|
        A-0-12-12-0-0-12-12-0-0-12-12-0-10-10-11-0-|-0-12-12-0-0-12-12-0-0-12-12-0-10-10-11-0-|
        E-0-12-12-0-0-12-12-0-0-12-12-0-10-10-11-0-|-0-12-12-0-0-12-12-0-0-12-12-0-10-10-11-0-|

        e------------------------------------------|------------------------------------------|
        B------------------------------------------|------------------------------------------|
        G------------------------------------------|------------------------------------------|
        D-0-12-12-0-0-12-12-0-0-12-12-0-10-10-11-0-|-0-12-12-0-0-12-12-0-0-12-12-0-10-10-11-0-|
        A-0-12-12-0-0-12-12-0-0-12-12-0-10-10-11-0-|-0-12-12-0-0-12-12-0-0-12-12-0-10-10-11-0-|
        E-0-12-12-0-0-12-12-0-0-12-12-0-10-10-11-0-|-0-12-12-0-0-12-12-0-0-12-12-0-10-10-11-0-|

        e------------------------------------------|---------------------------------------|
        B------------------------------------------|---------------------------------------|
        G------------------------------------------|---------------------------------------|
        D-0-12-12-0-0-12-12-0-0-12-12-0-10-10-11-0-|-0---12-0-0---12-0-0--12-0-10-10-10-10-|
        A-0-12-12-0-0-12-12-0-0-12-12-0-10-10-11-0-|-0---12-0-0---12-0-0--12-0-10-10-10-10-|
        D-0-12-12-0-0-12-12-0-0-12-12-0-10-10-11-0-|-0---12-0-0---12-0-0--12-0-10-10-10-10-|


        =Outro=

02:36   e--------------------------------------|----------------------------------|
        B--------------------------------------|----------------------------10----|
        G--------------------------------------|----------------------------12-br-|
        D-0---12-0-0---12-0-0--12-0-10-10-10-0-|-0---12-0-0---12-0-0---12-0-------|
        A-0---12-0-0---12-0-0--12-0-10-10-10-0-|-0---12-0-0---12-0-0---12-0-------|
        D-0---12-0-0---12-0-0--12-0-10-10-10-0-|-0---12-0-0---12-0-0---12-0-------|

        e--------------------------------------|----------------------------------|
        B--------------------------------------|----------------------------------|
        G--------------------------------------|----------------------------------|
        D-0---12-0-0---12-0-0--12-0-10-10-10-0-|-0--------------------------------|
        A-0---12-0-0---12-0-0--12-0-10-10-10-0-|-0--------------------------------|
        D-0---12-0-0---12-0-0--12-0-10-10-10-0-|-0--------------------------------|

        e--------------------------------------|
        B--------------------------------------|
        G--------------------------------------|
        D-------------------3-5-3-5-3--5-5br-3-|
        A-5--0--3--5---------------------------|
        D--------------------------------------|


        =Verse 4=

02:56   e-----------------------------------------------------------------|
        B---------------------------0-------------------------------0-----|
        G-----5-------5-------5---------5-----5-------5-------5---------5-| 
        D-----------------------------------------------------------------|
        A-----------------------------------------------------------------|
        D-0-----0-0-----0-0-----0-0-------0-----0-0-----0-0-----0-0-------|
                                                                                2x
        e---------------------------------------------------------------|
        B---------------------------0-----------------------------------|
        G-----5-------5-------5---------5-----5-------5-------5---------|
        D---------------------------------------------------------3-3-3-|
        A-------------------------------------------------------0-3-3-3-|
        D-0-----0-0-----0-0-----0-0-------0-----0-0-----0-0-----0-3-3-3-|


        e------------------------------|------------|
        B------------------------------|------------|
        G------------------------------|------------|
        D--------------3h5-3h5-3-------|-0----------|
        A-5---0--3--5------------3--4--|-0----------|
        D------------------------------|-0----------|






                               =========================================
                                don't forget to rate! that helps a lot!
                               =========================================
                                                  &    
                             =============================================
                             give me credit if you're using any of my tabs
                             =============================================


¨¨¨¨¨¨¨¨¨¨¨¨¨¨¨¨¨¨¨¨¨¨¨¨¨¨¨¨¨¨¨¨¨¨
-www.confort-reciclaclo.tumblr.com
-www.facebook.com/I.Really.Sux
-www.last.fm/user/mr_ahab
-f.alejandro27@gmail.com

Добавлено: 07.11.2015
Другие материалы по этой песне:
  • Аккорды и текст

Страница создана 07.11.2015
http://primanota.ru/drenge/running-wild-chords.htm
Привет, Гость.
Предлагаем пройти революционный курс по гитаре.
Подарок от PrimaNota.Ru, забирай!