PrimaNota.ru - самый крупный в мире бесплатный архив песенных текстов, аккордов, табулатур и нот


Drenge - People In Love Make Me Feel Yuck - таба, видео

Регистрация Запомнить меня
Войти через:  Facebook Google Twitter Vk Yandex Mail.ru

Drenge - People In Love Make Me Feel Yuck - таба, видео

Печатать
Просмотров: 89
Уроки эстрадного вокала в Санкт-Петербурге
Song: People In Love Make Me Feel Yuck
Artist: Drenge
Album: Drenge
=============================
www.drenge.co.uk
www.drenge.tumblr.com
www.instagram.com/drengedrenge
www.facebook.com/drengeboys
www.soundcloud.com/drenge
www.youtube.com/user/drengeband
www.twitter.com/drenge
=============================



        Tuning: Open G

        =Intro=

00:04   d-----------------|-----------------|
        B-----------------|-----------------|
        G-3-------3-------|-3-------3-2-1-0-|
        D-3-------3-------|-3-------3-2-1-0-|
        G-3-------3-------|-3-------3-2-1-0-|
        D-----------------|-----------------|


        =Verse 1=

00:13   d-----------------|---------------|-----------------|---------------|
        B-----------------|---------------|-----------------|---------------|
        G-5-5--5--12-12---|-5-5--5--------|-5-5--5--12-12---|-5-5--5--------| 2x
        D-3-3--0--10-10-0-|-3-3--0--------|-3-3--0--10-10-0-|-3-3--0--------|
        G-3-3--0--10-10-0-|-3-3--0--------|-3-3--0--10-10-0-|-3-3--0--------|
        D-0-5--0---0--0-0-|-0-5--0--3-3-0-|-0-5--0---0--0-0-|-0-5--0--3-3-0-|

        d-----------------|---------------|-----------------|---------------|
        B-----------------|---------------|-----------------|---------------|
        G-5-5--5--12-12---|-5-5--5--------|-5-5--5--12-12---|-5-5--5--------|
        D-3-3--0--10-10-0-|-3-3--0--------|-3-3--0--10-10-0-|-3-3--0--------|
        G-3-3--0--10-10-0-|-3-3--0--------|-3-3--0--10-10-0-|-3-3--0--------|
        D-0-5--0---0--0-0-|-0-5--0--3-3-0-|-0-5--0---0--0-0-|-0-5--0--3-3-0-|


        =Verse 2=

00:40   d-----------------|---------------|-----------------|---------------|
        B-----------------|---------------|-----------------|---------------|
        G-5-5--5--12-12---|-5-5--5--------|-5-5--5--12-12---|-5-5--5--------| 2x
        D-3-3--0--10-10-0-|-3-3--0--------|-3-3--0--10-10-0-|-3-3--0--------|
        G-3-3--0--10-10-0-|-3-3--0--------|-3-3--0--10-10-0-|-3-3--0--------|
        D-0-5--0---0--0-0-|-0-5--0--3-3-0-|-0-5--0---0--0-0-|-0-5--0--3-3-0-|

        d-----------------|-------------------|-----------------|-------------------|
        B-----------------|-------------------|-----------------|-------------------|
        G-----------------|-------------------|-----------------|-------------------|
        D---5------3--3---|---5------3--3\2---|---5------3--3---|---5------3--3\2---|
        G-3----0----------|-3----0------------|-3----0----------|-3----0------------|
        D-----------------|-------------------|-----------------|-------------------|


        =Chorus=

01:07   d-----------------|-------------------|-----------------|-------------------|
        B-----------------|-------------------|-----------------|-------------------|
        G-----------------|-------------------|-----------------|-------------------|
        D---5------3--3---|---5------3--3\2---|---5------3--3---|---5------3--3\2---|
        G-3----0----------|-3----0------------|-3----0----------|-3----0------------|
        D-----------------|-------------------|-----------------|-------------------|

        d-----------------|---------------|-----------------|---------------|
        B-----------------|---------------|-----------------|---------------|
        G-5-5--5--12-12---|-5-5--5--------|-5-5--5--12-12---|-5-5--5--------| 2x
        D-3-3--0--10-10-0-|-3-3--0--------|-3-3--0--10-10-0-|-3-3--0--------|
        G-3-3--0--10-10-0-|-3-3--0--------|-3-3--0--10-10-0-|-3-3--0--------|
        D-0-5--0---0--0-0-|-0-5--0--3-3-0-|-0-5--0---0--0-0-|-0-5--0--3-3-0-|


        =Final Part= 

        (you can play it like this idk, it sounds nice)

01:25   d-------12-12121212-|-------15-15151515-|-------14-14141414-|-------12-12121212-|
        B--------x--x-x-x-x-|--------x--x-x-x-x-|--------x--x-x-x-x-|--------x--x-x-x-x-|
        G-5-5-x--x--x-x-x-x-|-5-5-x--x--x-x-x-x-|-5-5-x--x--x-x-x-x-|-5-5-x--x--x-x-x-x-|
        D-3-3-x--x--x-x-x-x-|-3-3-x--x--x-x-x-x-|-3-3-x--x--x-x-x-x-|-3-3-x--x--x-x-x-x-|
        G-3-3-x--0--0-0-0-0-|-3-3-x--0--0-0-0-0-|-3-3-x--0--0-0-0-0-|-3-3-x--0--0-0-0-0-|
        D-0-5----0--0-0-0-0-|-0-5----0--0-0-0-0-|-0-5----0--0-0-0-0-|-0-5----0--0-0-0-0-|

        d----------------|----------------|----------------|----------------|
        B----------------|----------------|----------------|----------------|
        G-5-5--5---------|-5-5--5---------|-5-5--5---------|-5-4-3-2--------| 
        D-3-3--3---------|-3-3--3---------|-3-3--3---------|-0-0-0-0--------|
        G-3-3--3---------|-3-3--3---------|-3-3--3---------|-5-4-3-2--------|
        D-0-5--5--3-3-0--|-0-5--5--3-3-0--|-0-5--5--3-3-0--|-3-2-1-0--------|



        *This was definitely hard to tab Im not completly sure 
        in some parts but still sounds quite right doesnt it?



                               =========================================
                                don't forget to rate! that helps a lot!
                               =========================================
                                                  &    
                             =============================================
                             give me credit if you're using any of my tabs
                             =============================================


¨¨¨¨¨¨¨¨¨¨¨¨¨¨¨¨¨¨¨¨¨¨¨¨¨¨¨¨¨¨¨¨¨¨
-www.confort-reciclaclo.tumblr.com
-www.facebook.com/I.Really.Sux
-www.last.fm/user/mr_ahab
-f.alejandro27@gmail.com

Добавлено: 07.11.2015
Другие материалы по этой песне:
  • Аккорды и текст

Страница создана 07.11.2015
http://primanota.ru/drenge/people-in-love-make-me-feel-yuck-chords.htm
Привет, Гость.
Предлагаем пройти революционный курс по гитаре.
Подарок от PrimaNota.Ru, забирай!