PrimaNota.ru - самый крупный в мире бесплатный архив песенных текстов, аккордов, табулатур и нот


Drenge - Never Awake - таба, видео

Регистрация Запомнить меня
Войти через:  Facebook Google Twitter Vk Yandex Mail.ru

Drenge - Never Awake - таба, видео

Печатать
Просмотров: 102
Song: Never Awake
Artist: Drenge
Album: Undertow
=============================
www.drenge.co.uk
www.drenge.tumblr.com
www.instagram.com/drengedrenge
www.facebook.com/drengeboys
www.soundcloud.com/drenge
www.youtube.com/user/drengeband
www.twitter.com/drenge
=============================


                                                                                      Uploaded:20/04/2015
        
                            C7   Am7   B7   G    E  Esus4      
        Chorus Chords   e----------------------------------|
                        B----5----5----4-------------------|
                        G----x----x----x----4----1----2----|
                        D----5----5----4----5----2----2----|
                        A----3----0----2----5----2----2----|
                        E-------------------3----0----0----|

        =Intro=
        
00:07   e------------------|------------------|------------------|------------------|
        B------------------|------------------|------------------|------------------|
        G------------------|------------------|------------------|------------------|
        D-4--4-4-4-4-----4-|-4--4-4-4-4-----4-|-4--4-4-4-4-----4-|-4--4-4-4-4-----4-|
        A-2--2-0-2-2h3p2-0-|-2--2-0-2-2h3p2-0-|-2--2-0-2-2h3p2-0-|-2--2-0-2-2h3p2-0-|
        E------------------|------------------|------------------|------------------|


        =Verse=

00:14   e------------------|------------------|------------------|------------------|
        B------------------|------------------|------------------|------------------|
        G------------------|------------------|------------------|------------------|
        D-4--4-4-4-4-----4-|-4--4-4-4-4-----4-|-4--4-4-4-4-----4-|-4--4-4-4-4-----4-|
        A-2--2-0-2-2h3p2-0-|-2--2-0-2-2h3p2-0-|-2--2-0-2-2h3p2-0-|-2--2-0-2-2h3p2-0-|
        E------------------|------------------|------------------|------------------|
                                                                                        2x
        e------------------|------------------|------------------|------------------|
        B------------------|------------------|------------------|------------------|
        G------------------|------------------|------------------|------------------|
        D------4-4-4-----4-|------4-4-4-----4-|-4--4-4-4-4-----4-|-4--4-4-4-4-----4-|
        A------0-2-2h3p2-0-|------0-2-2h3p2-0-|-2--2-0-2-2h3p2-0-|-2--2-0-2-2h3p2-0-|
        E-3----------------|-3----------------|------------------|------------------|


        =Chorus=
      C7                         Am7
00:44   You went off losing your mind
      B7                        G
        I don't know where to begin
      C7                       Am7
        How about twisting the knife
      B7                   G
        After you stick it in
      C7                         Am7
        If you've got nothing to prove
      B7                         G
        It's like you'll never escape
                     F
        It's just so hard to get through
                     E       Esus4   E
        It's just so hard to talk to you

        Because you're never awake

      (a-wake)   
01:14   e------------------|------------------|------------------|------------------|
  Gtr.1 B------------------|------------------|------------------|------------------|
        G------------------|------------------|------------------|------------------|
        D-4--4-4-4-4-----4-|-4--4-4-4-4-----4-|-4--4-4-4-4-----4-|-4--4-4-4-4-----4-|
        A-2--2-0-2-2h3p2-0-|-2--2-0-2-2h3p2-0-|-2--2-0-2-2h3p2-0-|-2--2-0-2-2h3p2-0-|
        E------------------|------------------|------------------|------------------|
        |
        |       
        e------------------|------------------|------------------|------------------|
  Gtr.2 B------------------|------------------|------------------|------------------|
        G----------10----9-|-8----------------|----------10----9-|-8----------------|
        D------------------|------------------|----9-------------|------------------|
        A------------------|------------------|------------------|------------------|
        E------------------|------------------|------------------|------------------|


        =Verse=

01:20   e------------------|------------------|------------------|------------------|
        B------------------|------------------|------------------|------------------|
        G------------------|------------------|------------------|------------------|
        D-4--4-4-4-4-----4-|-4--4-4-4-4-----4-|-4--4-4-4-4-----4-|-4--4-4-4-4-----4-|
        A-2--2-0-2-2h3p2-0-|-2--2-0-2-2h3p2-0-|-2--2-0-2-2h3p2-0-|-2--2-0-2-2h3p2-0-|
        E------------------|------------------|------------------|------------------|
                                                                                        2x
        e------------------|------------------|------------------|------------------|
        B------------------|------------------|------------------|------------------|
        G------------------|------------------|------------------|------------------|
        D------4-4-4-----4-|------4-4-4-----4-|-4--4-4-4-4-----4-|-4--4-4-4-4-----4-|
        A------0-2-2h3p2-0-|------0-2-2h3p2-0-|-2--2-0-2-2h3p2-0-|-2--2-0-2-2h3p2-0-|
        E-3----------------|-3----------------|------------------|------------------|


        =Chorus=
      C7                         Am7
01:50   You went off losing your mind
      B7                        G
        I don't know where to begin
      C7                       Am7
        How about twisting the knife
      B7                   G
        After you stick it in
      C7                         Am7
        If you've got nothing to prove
      B7                         G
        It's like you'll never escape
                     F
        It's just so hard to get through
                     E       Esus4   E
        It's just so hard to talk to you

        Because you're never awake

      (a-wake)   
02:21   e------------------|------------------|------------------|------------------|
        B------------------|------------------|------------------|------------------|
        G------------------|------------------|------------------|------------------|
        D-9--9-9-9-9-----9-|-9--9-9-9-9-----9-|-9--9-9-9-9-----9-|-9--9-9-9-9-----9-|
        A-9--9-9-9-9-----9-|-9--9-9-9-9-----9-|-9--9-9-9-9-----9-|-9--9-9-9-9-----9-|
        E-7--7-0-7-7h8p7-0-|-7--7-0-7-7h8p7-0-|-7--7-0-7-7h8p7-0-|-7--7-0-7-7h8p7-0-|
                
        e-----------------------|----------------|------------------|------------------|
        B-----------------------|----------------|------------------|------------------|
        G-----------------------|----------------|------------------|------------------|
        D-12--12-12-12-12-12-12-|-5--5-5-5-5-5-5-|-9--9-9-9-9-----9-|-9--9-9-9-9-----9-|
        A-12--12-12-12-12-12-12-|-5--5-5-5-5-5-5-|-9--9-9-9-9-----9-|-9--9-9-9-9-----9-|
        E-10--10-10-10-10-10-10-|-3--3-3-3-3-3-3-|-7--7-0-7-7h8p7-0-|-7--7-0-7-7h8p7-0-|



        =Solo=

02:36   e------------------|------------------|------------------|------------------|
  Gtr.1 B------------------|------------------|------------------|------------------|
        G------------------|------------------|------------------|------------------|
        D-9--9-9-9-9-----9-|-9--9-9-9-9-----9-|-9--9-9-9-9-----9-|-9--9-9-9-9-----9-|
        A-9--9-9-9-9-----9-|-9--9-9-9-9-----9-|-9--9-9-9-9-----9-|-9--9-9-9-9-----9-|
        E-7--7-0-7-7h8p7-0-|-7--7-0-7-7h8p7-0-|-7--7-0-7-7h8p7-0-|-7--7-0-7-7h8p7-0-|
        |
        |       
        e------------------|------------------|------------------|------------------|
  Gtr.2 B------------------|------------------|------------------|------------------|
        G----------10----9-|-8----------------|----------10----9-|-8----------------|
        D-9-9--------------|------------------|-9-9--------------|------------------|
        A------------------|------------------|------------------|------------------|
        E------------------|------------------|------------------|------------------|
                
        e-----------------------|----------------|------------------|------------------|
  Gtr.1 B-----------------------|----------------|------------------|------------------|
        G-----------------------|----------------|------------------|------------------|
        D-12--12-12-12-12-12-12-|-5--5-5-5-5-5-5-|-9--9-9-9-9-----9-|-9--9-9-9-9-----9-|
        A-12--12-12-12-12-12-12-|-5--5-5-5-5-5-5-|-9--9-9-9-9-----9-|-9--9-9-9-9-----9-|
        E-10--10-10-10-10-10-10-|-3--3-3-3-3-3-3-|-7--7-0-7-7h8p7-0-|-7--7-0-7-7h8p7-0-|
        |
        |
        e--------------------------|--------10-10-10-9--|-7---9---10---12---|-14---17---17/19---|
  Gtr.2 B--------------------------|--------------------|-------------------|-------------------|
        G------------------9/11\9--|--------------------|-------------------|-------------------|
        D---------------12---------|--------------------|-------------------|-------------------|
        A--------------------------|-10--10-------------|-------------------|-------------------|
        E--------------------------|--------------------|-------------------|-------------------|


        =Chorus=
      C7                         Am7
02:51   You went off losing your mind
      B7                        G
        I don't know where to begin
      C7                       Am7
        How about twisting the knife
      B7                   G
        After you stick it in
      C7                         Am7
        If you've got nothing to prove
      B7                         G
        It's like you'll never escape
                     F
        It's just so hard to get through
                     E       Esus4   E
        It's just so hard to talk to you

        Because you're never awake

      (a-wake)   
03:21   e------------------|------------------|------------------|------------------|----|
        B------------------|------------------|------------------|------------------|----|
        G-4--4-4-4-4-----4-|-4--4-4-4-4-----4-|-4--4-4-4-4-----4-|-4--4-4-4-4-----4-|-4--|
        D-4--4-4-4-4-----4-|-4--4-4-4-4-----4-|-4--4-4-4-4-----4-|-4--4-4-4-4-----4-|-4--|
        A-2--2-0-2-2h3p2-0-|-2--2-0-2-2h3p2-0-|-2--2-0-2-2h3p2-0-|-2--2-0-2-2h3p2-0-|-2--|
        E------------------|------------------|------------------|------------------|----|






                               =========================================
                                don't forget to rate! that helps a lot!
                               =========================================
                                                  &    
                             =============================================
                             give me credit if you're using any of my tabs
                             =============================================


¨¨¨¨¨¨¨¨¨¨¨¨¨¨¨¨¨¨¨¨¨¨¨¨¨¨¨¨¨¨¨¨¨¨
-www.confort-reciclaclo.tumblr.com
-www.facebook.com/I.Really.Sux
-www.last.fm/user/mr_ahab
-f.alejandro27@gmail.com
Добавлено: 07.11.2015
Другие материалы по этой песне:
  • Аккорды и текст

Страница создана 07.11.2015
http://primanota.ru/drenge/never-awake-chords.htm
Привет, Гость.
Предлагаем пройти революционный курс по гитаре.
Подарок от PrimaNota.Ru, забирай!