PrimaNota.ru - самый крупный в мире бесплатный архив песенных текстов, аккордов, табулатур и нот


Drenge - Bye Bye Bao Bao - таба, видео

Регистрация Запомнить меня
Войти через:  Facebook Google Twitter Vk Yandex Mail.ru

Drenge - Bye Bye Bao Bao - таба, видео

Печатать
Просмотров: 41
Song: Bye Bye Bao Bao
Artist: Drenge
Album: Drenge
=============================
www.drenge.co.uk
www.drenge.tumblr.com
www.instagram.com/drengedrenge
www.facebook.com/drengeboys
www.soundcloud.com/drenge
www.youtube.com/user/drengeband
www.twitter.com/drenge
=============================


                                                                                      Uploaded:17/04/2015

        =Intro=
          
00:01   e-------------------------------------|-------------------------------------|
        B-------------------------------------|-------------------------------------|
        G----------------0---------0----------|----------------0------------0-------|
        D-2---------6-4--4----4-2--2----------|-2---------6-4--4----6-4-\2--2-------|
        A-0---------0-0--0----0-0--0----------|-0---------0-0--0----0-0-----0-------|
        E-0---------0-0--0----0-0--0----------|-0---------0-0--0----0-0-----0-------|


        =Verse=
            
00:22   e-------------------------------------|---------------------------------------|
        B-------------------------------------|---------------------------------------|
        G-0-0-0-0-0-0-----0---------0-----0---|-0---0---0---0-----0---------0-----0---|
        D-0-0-2-0-0-6-----4---------4-----2---|-0---2---2---6-----4---------4-----2---|
        A-2-4-0-4-2-0-----0---------0-----0---|-2h4-0h4-0h4-0-----0---------0-----0---|
        E-0-0-0-0-0-0---------------0-----0---|-0---0---0---0---------------0-----0---|

                                                             bye   bye       bao   bao
        e---------------------------------------|---------------------------------------|
        B---------------------------------------|---------------------------------------|
        G-0---0---0---0-----0---------0-----0---|-0---0---0---0-----0---------0---------|
        D-0---2---2---6-----4---------4-----2---|-0---2---2---6-----4---------4----\2---|
        A-2h4-0h4-0h4-0-----0---------0-----0---|-2h4-0h4-0h4-0-----0---------0---------|
        E-0---0---0---0---------------0-----0---|-0---0---0---0---------------0---------|




                               =========================================
                                don't forget to rate! that helps a lot!
                               =========================================
                                                  &    
                             =============================================
                             give me credit if you're using any of my tabs
                             =============================================


¨¨¨¨¨¨¨¨¨¨¨¨¨¨¨¨¨¨¨¨¨¨¨¨¨¨¨¨¨¨¨¨¨¨
-www.confort-reciclaclo.tumblr.com
-www.facebook.com/I.Really.Sux
-www.last.fm/user/mr_ahab
-f.alejandro27@gmail.com
Добавлено: 07.11.2015
Другие материалы по этой песне:
  • Аккорды и текст

Страница создана 07.11.2015
http://primanota.ru/drenge/bye-bye-bao-bao-chords.htm
Привет, Гость.
Предлагаем пройти революционный курс по гитаре.
Подарок от PrimaNota.Ru, забирай!