PrimaNota.ru - самый крупный в мире бесплатный архив песенных текстов, аккордов, табулатур и нот


Dredg - Yatahaze - текст песни, таба, видео

Регистрация Запомнить меня
Войти через:  Facebook Google Twitter Vk Yandex Mail.ru

Dredg - Yatahaze - текст песни, таба, видео

Печатать
Просмотров: 147
Авторы: dredg

Yatahaze
Leitmotif-Dredg
standard tuning
{}=harmonic
/or\=slide up or down

intro
e|-------------------------------------------------------------------|
b|-------------------------------------------------------------------|
g|-10---10---10---10----1010101010-9-9-9-9-9--7-7-7-7-7--9-9-9-9-9---|
d|-7----7----7----7-----7-7-7-7-7--7-7-7-7-7--7-7-7-7-7--7-7-7-7-7-X3|
a|-5----5----5----5-----5-5-5-5-5--5-5-5-5-5--5-5-5-5-5--5-5-5-5-5---|
E|----5----5----5----5-----------------------------------------------|

e|-------------------------------------------------------------------|
b|--/6666666--/8888888--3~~~~~~~~~~~---------------------------------|
g|--/7777777--/9999999--2~~~~~~~~~~~---------------------------------|
d|----------------------0~~~~~~~~~~~---------------------------------|
a|----------------------0~~~~~~~~~~~---------------------------------|
E|-------------------------------------------------------------------|

Verse 1
e|-------------------------------------------------------------------|
b|-------------------------------------------------------------------|
g|--------------10109-9-9-9-7-7-7-7-9-9-9-9-----------------7~~~~~~--|
d|------------7-7-7-7-7-7-7-7-7-7-7-7-7-7-7--X3-------------7~~~~~~--|
a|-8888888888-5-5-5-5-5-5-5-5-5-5-5-5-5-5-5-----8888888888--5~~~~~~--|
E|-6666666666-5-5-5-5-5-5-5-5-5-5-5-5-5-5-5-----6666666666--5~~~~~~--|

Verse 2
e|-------------------------------------------------------------------|
b|-------------------------------------------------------------------|
g|-------------------------10109-9-9-9-7-7-7-7-9-9-9-9---------------|
d|-----101010\8-8-8-8-8--7-7-7-7-7-7-7-7-7-7-7-7-7-7-7-X2------------|
a|-8-8-8-8-8--8-8-8-8-8--5-5-5-5-5-5-5-5-5-5-5-5-5-5-5---------------|
E|-6-6-6-6-6--6-6-6-6-6--5-5-5-5-5-5-5-5-5-5-5-5-5-5-5---------------|

e|-------------------------------------------------------------------|
b|-------------------------------------8-8-8-8-----------------------|
g|-----------7-7-7-7-7-----10109-9-9-9-x-x-x-x-9-9-9-9---------------|
d|-----101010x-x-x-x-x---7-7-7-7-7-7-7-7-7-7-7-7-7-7-7---------------|
a|-8-8-8-8-8-8-8-8-8-8---5-5-5-5-5-5-5-5-5-5-5-5-5-5-5---------------|
E|-6-6-6-6-6-6-6-6-6-6---5-5-5-5-5-5-5-5-5-5-5-5-5-5-5---------------|

e|-------------------------------------------------------------------|
b|-------------------------------------------------------------------|
g|-----------7-7-7-7-7---7~~~~~--------------------------------------|
d|-----101010x-x-x-x-x---7~~~~~--------------------------------------|
a|-8-8-8-8-8-8-8-8-8-8---5~~~~~--------------------------------------|
E|-6-6-6-6-6-6-6-6-6-6---5~~~~~--------------------------------------|

Bridge 1
e|------5~~------5------5~~------5~~-------------5~~-----------------|
b|------6~~--------6----6~~------6~~------6------6~~-----------------|
g|-------------------7--7~~-----------------7----7~~---X2------------|
d|----7-------7---------7~~----7-------7------7--7~~-----------------|
a|--5-------5----------------5-------5-----------5~~-----------------|
E|-------------------------------------------------------------------|

Bridge 2
e|-------------------------------------------------------------------|
b|-------------------------------------------------------------------|
g|------------/12121212-10101010-------------/10101010-9-9-9-9-------|
d|-8888888888-/x-x-x-x--x-x-x-x---7777777777-/x-x-x-x--x-x-x-x--X2---|
a|-8888888888-/10101010-8-8-8-8---5555555555-/8-8-8-8--7-7-7-7-------|
E|-6666666666---------------------5555555555-------------------------|

e|-------------------------------------------------------------------|
b|-------------------------------------------------------------------|
g|------------/12121212-14141414-------------/10101010-9-9-9-9-------|
d|-8888888888-/x-x-x-x--x-x-x-x---7777777777-/x-x-x-x--x-x-x-x--X2---|
a|-8888888888-/10101010-12121212--5555555555-/8-8-8-8--7-7-7-7-------|
E|-6666666666---------------------5555555555-------------------------|

e|-------------------------------|
b|-------------------------------|
g|----------/12121212-14141414---|
d|-88888888-/x-x-x-x--x-x-x-x----|
a|-88888888-/10101010-12121212---|
E|-66666666----------------------|

e|-------------------------------------------------------------------|
b|------------------------------------------------leave out the x's--|
g|------------------------------------------------on the end after---|
d|-77777xxxxx77777xxxxx-----xxxxx-----xxxxx--X4---second and fourth--|
a|-55555xxxxx55555xxxxx88888xxxxx88888xxxxx-------time---------------|
E|-55555xxxxx55555xxxxx66666xxxxx66666xxxxx--------------------------|

e|-------------------------------------------------------------------|
b|-------------------------------------------------------------------|
g|---------------------------------------------9-9-9-9-------9-9-9-9-|
d|-77777-{7}{7}{7}{7}-77777-{7}{7}{7}{7}-88888-x-x-x-x-88888-x-x-x-x-|X4
a|-55555--------------55555--------------88888-7-7-7-7-88888-7-7-7-7-|
E|-55555--------------55555--------------66666---------66666---------|

e|-----------------------|
b|-----------------------|
g|-----------------------|
d|--{7}-alot of times----|
a|-----------------------|
E|-----------------------|

Outro
e|-------------------------------------------------------------------|
b|-------------------------------------------------------------------|
g|-------------------------------------------------------------------|
d|-------77777-------77777-------------------------------------------|
a|-55555-------55555-------------77777-8p77777-5h77777---------------|
E|-------------------------66666-------------------------------------|

e|-------------------------------------------------------------------|
b|-------------------------------------------------------------------|
g|-------------------------------------------------------------------|
d|-------77777-8p77777-5h77777---------------------------------------|
a|-55555-------------------------------77777-88888-1010101010--------|
E|-----------------------------5h66666-------------------------------|

e|-------------------------------------------------------------------|
b|-------------------------------------------------------------------|
g|-------------------------------------------------------------------|
d|-------77777-88888-1010101010--------------------------------------|
a|-55555------------------------------77777-8p7777-5h77777-----------|
E|------------------------------66666--------------------------------|

e|-------------------------------------------------------------------|
b|-------------------------------------------------------------------|
g|-------------------------------------------------------------------|
d|-------77777-8-7-5-5h7p5-------------------------------------------|
a|-55555-------------------8-------77777-8-7-5-7-5-3-----------------|
E|---------------------------66666-----------------------------------|

e|-------------------------------------------------------------------|
b|-------------------------------------------------------------------|
g|-6666666666666666666/77777777777777777/14141414141414141414141414--|
d|-xxxxxxxxxxxxxxxxxxx/xxxxxxxxxxxxxxxxx/x-x-x-x-x-x-x-x-x-x-x-x-x---|
a|-4444444444444444444/55555555555555555/12121212121212121212121212--|
E|-------------------------------------------------------------------|

e|-------------------------------------------------------------------|
b|-------------------------------------------------------------------|
g|-131313131313-13~~~~-----------------------------------------------|
d|-x-x-x-x-x-x--x----------------------------------------------------|
a|-111111111111-11~~~~-----------------------------------------------|
E|--------------0~~~~~-----------------------------------------------|
Добавлено: 23.07.2013
Другие материалы по этой песне:

Страница создана 27.02.2012
http://primanota.ru/dredg/yatahaze-chords.htm
Привет, Гость.
Предлагаем пройти революционный курс по гитаре.
Подарок от PrimaNota.Ru, забирай!