PrimaNota.ru - самый крупный в мире бесплатный архив песенных текстов, аккордов, табулатур и нот


Dredg - Traversing Through The Arctic Cold We Search For The Spirit Of Yuta - таба, видео

Регистрация Запомнить меня
Войти через:  Facebook Google Twitter Vk Yandex Mail.ru

Dredg - Traversing Through The Arctic Cold We Search For The Spirit Of Yuta - таба, видео

Печатать
Просмотров: 69
Авторы: dredg

dredg
intermission
Leitmotif


Notes:  PM= palm mute, also palm mute when you see periods(....) under a part of the tab.
        x= times, if you see this directly under a part of a tab, that part is played 
many times.
        U and D= strum. again, if seen under a tab, strum ALL chords either UP (U) or 
(D)
This is how I was taught to play it.

First Part
e|-3--2--2--0-|
B|-0--0--1--1-|
G|-0--2--2--0-|
D|-2--0--0--2-|
A|-------x----|
E|------------|
strum accordingly..then:

Verse ( 0:50)
e|---------------------------------------------------------|
B|----7--------------7---8-8-8-7------7----------7---8-8-8-|
G|--------9--9--------------------9-------9-9--------------|
D|---------------------------------------------------------|
A|-/7---7---------/7---7-----------------------------------|
E|----------------------------------8---8------8---8-------|

e|-------------------------------------------------------------|
B|----7--------------7---8-8-8-7------7------------------------|
G|--------9--9--------------------9-------9--9---7-7-7---5-5-5-|
D|-------------------------------------------------------------|
A|-/7---7---------/7---7---------------------------------------|
E|----------------------------------8---8----------------------|

e|-------------------------------------------------------------|
B|----7----------7--8-8/10/8----7----------7---8-8-8-7---------|
G|--------9-9-----------------------9-9----------------9-------|
D|-------------------------------------------------------------|
A|-/7---7------7---7-------------------------------------------|
E|----------------------------8---8------8---8-----------------|

e|-------------------------------------------------------------|
B|----7--------------7---8-8-8-7------7------------------------|
G|--------9--9--------------------9-------9--9---7-7-7---5-5-5-|
D|-------------------------------------------------------------|
A|-/7---7---------/7---7---------------------------------------|
E|----------------------------------8---8----------------------|

GUITAR TWO comes in at (1:06)
e|-15-12-----------12-15-12----------12------------------12-------|
B|-------------------------------------15-12----------------15-12-|
G|-------9------------------9-----------------9-------------------|
D|---------9-7-9--------------9-7-9-------------9-7-(9)-----------|
A|----------------------------------------------------------------|
E|----------------------------------------------------------------|
         PM......           ........          ..........
play (2nd guitar) until 1:36

Pre Chorus ( first guitar)

quietly from 1:21-1:38 then get louder.
e|-3--3---2--0--|
B|-3--3---3--1--|
G|-0--0---2--0--|
D|-2--2---0--2--|
A|-2--x---x--3--|
E|----2--(1)-x--|
  8x  8x  8x 8x

Pre Chorus ( second guitar)1:37-1:52

e|-12-19-12---12-17-12--12-15-12--12-14-12-12-12---|
B|-------------------------------------------------|
G|-------------------------------------------------|
D|-------------------------------------------------|
A|-------------------------------------------------|
E|-------------------------------------------------|
repeat BOTH guitar parts accordingly until:


CHORUS
e|-3-3--3-3-x--3-3--3-3--2-2--2-2--0-0--0-0-|
B|-3-3--3-3-x--3-3--3-3--1-1--2-2--1-1--1-1-|
G|-0-0--0-0-x--0-0--0-0--2-2--2-2--0-0--0-0-|
D|-2-2--2-2-x--2-2--2-2--0-0--0-0--2-2--2-2-|
A|-2-2--2-2-x--x-x--x-x--x-x--x-x--3-3--3-3-|
E|----------x--2-2--2-2--x-x--x-x-----------|
  D U  U U    D U  U U  D U  U U  D U  U U
repeat accordingly

then:
e|-5-5--5-5-|
B|-5-5--5-5-|
G|-5-5--5-5-|
D|-7-7--7-7-|
A|-7-7--7-7-|
E|-5-5--5-5-|

Then repeats ( most of the song?)

until Chorus 2 (played  instead of CHORUS 1) at 3:12

e|-3-3--3-3-|
B|-3-3--3-3-|
G|-0-0--0-0-|
D|-2-2--2-2-|
A|-2-2--2-2-|
E|-0-x--0-0-|

until its just :

e|----------|
B|----------|
G|----------|
D|-2-2--2-2-|
A|-2-2--2-2-|
E|-0-0--0-0-|

then all fades to static, noises and sounds.


Comments? Questions?

obiwancanole@yaoo.com
Добавлено: 21.08.2013
Другие материалы по этой песне:
  • Аккорды и текст

Страница создана 21.08.2013
http://primanota.ru/dredg/traversing-through-the-arctic-cold-we-search-for-the-spirit-of-yuta-chords.htm
Привет, Гость.
Предлагаем пройти революционный курс по гитаре.
Подарок от PrimaNota.Ru, забирай!