PrimaNota.ru - самый крупный в мире бесплатный архив песенных текстов, аккордов, табулатур и нот


Dredg - The Thought Of Losing You - текст песни, таба, видео

Регистрация Запомнить меня
Войти через:  Facebook Google Twitter Vk Yandex Mail.ru

Dredg - The Thought Of Losing You - текст песни, таба, видео

Печатать
Просмотров: 157
-------------------------------------------------------------------------------
			    The Thought of Losing You - Dredg
-------------------------------------------------------------------------------
Tabbed by: jgsb2001

Tuning: Standard

Intro, and 0:24-0:47 and 1:03-1:42
e---------------------------------------------------|
b-----------------------------------------6-6-------|
G---------7-7-7-5-5-5-3-3-2---7-7-7-7-5-5-----------|
D--/5-5-5-------------------5-----------------------|
A---------------------------------------------------|
E---------------------------------------------------|

0:08 and 2:22
e------------------------------------------------------------|
b------------------------------------------------------------|
G------------------------------------------------------------|
D---5---/12---10----8----7----5----/12---10---15----17-------|
A---x----------x----x----x----x----------------x-----x-------|
E---3---/10----8----6----5----3----/10----8---13----15-------|

0:32 - 0:47 (intro could go here too)
e----------------------------|
b----------------------------|
G---8---7---10---8---5---5---|
D---x---x---x----x---x---x---|
A---6---5---8----6---3---3---|
E----------------------------|

Lead (high notes that are tough for me to decipher) 0:48 - 1:02
Repeat each set of alternate picked notes four or so times
e-----6-------6--------5-------6---|
b--8-------6--------3-------4------|
G----------------------------------|
D----------------------------------|
A----------------------------------|
E----------------------------------|

Rhythm 0:48 - 1:02
e---------------------|
b---------------------|
G---12---10---7---8---|
D----x---x----x---x---|
A---10---8----5---6---|
E---------------------|

1:59
e------------------------------------------------|
b--8----6----10----8----11----10-----------------|
G------------------------------------------------|
D------------------------------------------------|
A------------------------------------------------|
E------------------------------------------------|
Добавлено: 20.08.2013
Другие материалы по этой песне:
  • Аккорды и текст

Страница создана 20.08.2013
http://primanota.ru/dredg/the-thought-of-losing-you-chords.htm
Привет, Гость.
Предлагаем пройти революционный курс по гитаре.
Подарок от PrimaNota.Ru, забирай!