PrimaNota.ru - самый крупный в мире бесплатный архив песенных текстов, аккордов, табулатур и нот


Dredg - The Canyon Behind Her - текст песни, таба, видео

Регистрация Запомнить меня
Войти через:  Facebook Google Twitter Vk Yandex Mail.ru

Dredg - The Canyon Behind Her - текст песни, таба, видео

Печатать
Просмотров: 115
Авторы музыки: dredg
Авторы текста: Gavin Hayes
Dredg- The Canyon Behind Her
Standard Tuning: EADGBE
Questions/Suggestions: subzero68@zoominternet.net

Opening is clean w/ slight echo effect:
e-------------------------|
b--12--12-12-11-11--------|
g------------------11\8-8-|
d-------------------------|
a-------------------------|
e-------------------------|

e-------------------------|
b--12--12-12-14-14-11\9-9-|
g-------------------------|
d-------------------------|
a-------------------------|
e-------------------------|

e-------------------------|
b--12--12-12-11-11--------|
g------------------11\8-8-|
d-------------------------|
a-------------------------|
e-------------------------|

e-------------------------|
b--12--12-12-14-14-11\9-9-|
g-------------------------|
d-------------------------|
a-------------------------|
e-------------------------|

e-------------------------|
b--12--12-12-11-11--------|
g------------------11\8-8-|
d-------------------------|
a-------------------------|
e-------------------------|

e-------------------------|
b--12--12-12-14-14-11\9-9-|
g-------------------------|
d-------------------------|
a-------------------------|
e-------------------------|

Distortion w/ fast strumming:
e---------------------------------------------------------------------------|
b---------------------------------------------------------------------------|
g-13-13-13-13-13-13-13-13-16-16-16-16-16-16-16-16-15-15-15-15-15-15-15-15---|
d--x--x--x--x--x--x--x--x--x--x--x--x--x--x--x--x--x--x--x--x--x--x--x--x---|
a-11-11-11-11-11-11-11-11-14-14-14-14-14-14-14-14-13-13-13-13-13-13-13-13---|
e---------------------------------------------------------------------------|

e---------------------------------------------------------------------------|
b---------------------------------------------------------------------------|
g-11-11-11-11-11-11-11-11-13-13-13-13-13-13-13-13-16-16-16-16-16-16-16-16---|
d--x--x--x--x--x--x--x--x--x--x--x--x--x--x--x--x--x--x--x--x--x--x--x--x---|
a--9--9--9--9--9--9--9--9-11-11-11-11-11-11-11-11-14-14-14-14-14-14-14-14---|
e---------------------------------------------------------------------------|

e-------------------------------------------------|
b-------------------------------------------------|
g-15-15-15-15-15-15-15-15-18-18-18-18-18-18-18-18-|
d--x--x--x--x--x--x--x--x--x--x--x--x--x--x--x--x-|
a-13-13-13-13-13-13-13-13-16-16-16-16-16-16-16-16-|
e-------------------------------------------------|

e---------------------------------------------------------------------------|
b---------------------------------------------------------------------------|
g-6-6-6-6-6-6-6-6-9-9-9-9-9-9-9-9-8-8-8-8-8-8-8-8-11-11-11-11-11-11-11-11---|
d-x-x-x-x-x-x-x-x-x-x-x-x-x-x-x-x-x-x-x-x-x-x-x-x--x--x--x--x--x--x--x--x---|
a-4-4-4-4-4-4-4-4-7-7-7-7-7-7-7-7-6-6-6-6-6-6-6-6--9--9--9--9--9--9--9--9---|
e---------------------------------------------------------------------------|

e---------------------------------------------------------------------------|
b---------------------------------------------------------------------------|
g-13-13-13-13-13-13-13-13-16-16-16-16-16-16-16-16-15-15-15-15-15-15-15-15---|
d--x--x--x--x--x--x--x--x--x--x--x--x--x--x--x--x--x--x--x--x--x--x--x--x---|
a-11-11-11-11-11-11-11-11-14-14-14-14-14-14-14-14-13-13-13-13-13-13-13-13---|
e---------------------------------------------------------------------------|

e---------------------------------------------------------------------------|
b---------------------------------------------------------------------------|
g-11-11-11-11-11-11-11-11-13-13-13-13-13-13-13-13-16-16-16-16-16-16-16-16---|
d--x--x--x--x--x--x--x--x--x--x--x--x--x--x--x--x--x--x--x--x--x--x--x--x---|
a--9--9--9--9--9--9--9--9-11-11-11-11-11-11-11-11-14-14-14-14-14-14-14-14---|
e---------------------------------------------------------------------------|

e-------------------------------------------------|
b-------------------------------------------------|
g-15-15-15-15-15-15-15-15-18-18-18-18-18-18-18-18-|
d--x--x--x--x--x--x--x--x--x--x--x--x--x--x--x--x-|
a-13-13-13-13-13-13-13-13-16-16-16-16-16-16-16-16-|
e-------------------------------------------------|

Like opening part, clean w/ slight echo effect:
e-------------------------|
b--12--12-12-11-11--------|
g------------------11\8-8-|
d-------------------------|
a-------------------------|
e-------------------------|

e-------------------------|
b--12-12-14-14-11\9-9-----|
g-------------------------|
d-------------------------|
a-------------------------|
e-------------------------|

e-------------------------|
b--12-12-11-11------------|
g--------------11\8-8-----|
d-------------------------|
a-------------------------|
e-------------------------|

e-------------------------|
b--12-12-14-14-11\9-9-----|
g-------------------------|
d-------------------------|
a-------------------------|
e-------------------------|

e-------------------------|
b--12-12-11-11------------|
g--------------11\8-8-----|
d-------------------------|
a-------------------------|
e-------------------------|

e-------------------------|
b--12-12-14-14-11\9-9-----|
g-------------------------|
d-------------------------|
a-------------------------|
e-------------------------|

e-------------------------|
b--12--12-12-11-11--------|
g------------------11\8-8-|
d-------------------------|
a-------------------------|
e-------------------------|

e-------------------------|
b--12-12-14-14-11\9-9-----|
g-------------------------|
d-------------------------|
a-------------------------|
e-------------------------|

e-------------------------|
b--12-12-11-11------------|
g--------------11\8-8-----|
d-------------------------|
a-------------------------|
e-------------------------|

e--11-11-11-11-11-11-11---|
b-------------------------|
g-------------------------|
d-------------------------|
a-------------------------|
e-------------------------|

Distortion w/ fast strumming:
e---------------------------------------------------------------------------|
b---------------------------------------------------------------------------|
g-13-13-13-13-13-13-13-13-16-16-16-16-16-16-16-16-15-15-15-15-15-15-15-15---|
d--x--x--x--x--x--x--x--x--x--x--x--x--x--x--x--x--x--x--x--x--x--x--x--x---|
a-11-11-11-11-11-11-11-11-14-14-14-14-14-14-14-14-13-13-13-13-13-13-13-13---|
e---------------------------------------------------------------------------|

e---------------------------------------------------------------------------|
b---------------------------------------------------------------------------|
g-11-11-11-11-11-11-11-11-13-13-13-13-13-13-13-13-16-16-16-16-16-16-16-16---|
d--x--x--x--x--x--x--x--x--x--x--x--x--x--x--x--x--x--x--x--x--x--x--x--x---|
a--9--9--9--9--9--9--9--9-11-11-11-11-11-11-11-11-14-14-14-14-14-14-14-14---|
e---------------------------------------------------------------------------|

e-------------------------------------------------|
b-------------------------------------------------|
g-15-15-15-15-15-15-15-15-18-18-18-18-18-18-18-18-|
d--x--x--x--x--x--x--x--x--x--x--x--x--x--x--x--x-|
a-13-13-13-13-13-13-13-13-16-16-16-16-16-16-16-16-|
e-------------------------------------------------|

e---------------------------------------------------------------------------|
b---------------------------------------------------------------------------|
g-6-6-6-6-6-6-6-6-9-9-9-9-9-9-9-9-8-8-8-8-8-8-8-8-11-11-11-11-11-11-11-11---|
d-x-x-x-x-x-x-x-x-x-x-x-x-x-x-x-x-x-x-x-x-x-x-x-x--x--x--x--x--x--x--x--x---|
a-4-4-4-4-4-4-4-4-7-7-7-7-7-7-7-7-6-6-6-6-6-6-6-6--9--9--9--9--9--9--9--9---|
e---------------------------------------------------------------------------|

e---------------------------------------------------------------------------|
b---------------------------------------------------------------------------|
g-13-13-13-13-13-13-13-13-16-16-16-16-16-16-16-16-15-15-15-15-15-15-15-15---|
d--x--x--x--x--x--x--x--x--x--x--x--x--x--x--x--x--x--x--x--x--x--x--x--x---|
a-11-11-11-11-11-11-11-11-14-14-14-14-14-14-14-14-13-13-13-13-13-13-13-13---|
e---------------------------------------------------------------------------|

e---------------------------------------------------------------------------|
b---------------------------------------------------------------------------|
g-11-11-11-11-11-11-11-11-13-13-13-13-13-13-13-13-16-16-16-16-16-16-16-16---|
d--x--x--x--x--x--x--x--x--x--x--x--x--x--x--x--x--x--x--x--x--x--x--x--x---|
a--9--9--9--9--9--9--9--9-11-11-11-11-11-11-11-11-14-14-14-14-14-14-14-14---|
e---------------------------------------------------------------------------|

e-------------------------------------------------|
b-------------------------------------------------|
g-15-15-15-15-15-15-15-15-18-18-18-18-18-18-18-18-|
d--x--x--x--x--x--x--x--x--x--x--x--x--x--x--x--x-|
a-13-13-13-13-13-13-13-13-16-16-16-16-16-16-16-16-|
e-------------------------------------------------|

e------------------------------------------|
b------------------------------------------|
g--16-16-16-16-16-16-16-16-16-15-15-15-15--|
d---x--x--x--x--x--x--x--x--x--x--x--x--x--|
a--14-14-14-14-14-14-14-14-14-13-13-13-13--|
e------------------------------------------|

Hard strums still with distortion:
(Gavin hits his slide guitar which makes up some of the music heard here)
e----------------------------------------------------------------------|
b----------------------------------------------------------------------|
g----------------------------------------------------------------------|
d--0-0----0-0----0-0----0-0----0----0----0----0----0----0----0----0----|
a--0-0----0-0----0-0----0-0----0----0----0----0----0----0----0----0----|
e--0-0----0-0----0-0----0-0----0----0----0----0----0----0----0----0----|

Play like the opening on clean w/ slight echo effect:
e-------------------------|
b--12--12-12-14-14-11\9-9-|
g-------------------------|
d-------------------------|
a-------------------------|
e-------------------------|

e-------------------------|
b--12-12-11-11------------|
g--------------11\8-8-----|
d-------------------------|
a-------------------------|
e-------------------------|

e-------------------------|
b--12-12-14-14-11\9-9-----|
g-------------------------|
d-------------------------|
a-------------------------|
e-------------------------|

e-------------------------|
b--12-12-11-11------------|
g--------------11\8-8-----|
d-------------------------|
a-------------------------|
e-------------------------|

e-------------------------|
b--12-12-14-14-11\9-9-----|
g-------------------------|
d-------------------------|
a-------------------------|
e-------------------------|

e-------------------------|
b--12-12-11-11------------|
g-------------11\8-8------|
d-------------------------|
a-------------------------|
e-------------------------|

e-------------------------|
b--12-12-14-14-11\9-9-----|
g-------------------------|
d-------------------------|
a-------------------------|
e-------------------------|

Distortion w/ fast strumming:
e---------------------------------------------------------------------------|
b---------------------------------------------------------------------------|
g-13-13-13-13-13-13-13-13-16-16-16-16-16-16-16-16-15-15-15-15-15-15-15-15---|
d--x--x--x--x--x--x--x--x--x--x--x--x--x--x--x--x--x--x--x--x--x--x--x--x---|
a-11-11-11-11-11-11-11-11-14-14-14-14-14-14-14-14-13-13-13-13-13-13-13-13---|
e---------------------------------------------------------------------------|

e---------------------------------------------------------------------------|
b---------------------------------------------------------------------------|
g-11-11-11-11-11-11-11-11-13-13-13-13-13-13-13-13-16-16-16-16-16-16-16-16---|
d--x--x--x--x--x--x--x--x--x--x--x--x--x--x--x--x--x--x--x--x--x--x--x--x---|
a--9--9--9--9--9--9--9--9-11-11-11-11-11-11-11-11-14-14-14-14-14-14-14-14---|
e---------------------------------------------------------------------------|

e-------------------------------------------------|
b-------------------------------------------------|
g-15-15-15-15-15-15-15-15-18-18-18-18-18-18-18-18-|
d--x--x--x--x--x--x--x--x--x--x--x--x--x--x--x--x-|
a-13-13-13-13-13-13-13-13-16-16-16-16-16-16-16-16-|
e-------------------------------------------------|

e---------------------------------------------------------------------------|
b---------------------------------------------------------------------------|
g-13-13-13-13-13-13-13-13-16-16-16-16-16-16-16-16-15-15-15-15-15-15-15-15---|
d--x--x--x--x--x--x--x--x--x--x--x--x--x--x--x--x--x--x--x--x--x--x--x--x---|
a-11-11-11-11-11-11-11-11-14-14-14-14-14-14-14-14-13-13-13-13-13-13-13-13---|
e---------------------------------------------------------------------------|

e---------------------------------------------------------------------------|
b---------------------------------------------------------------------------|
g-11-11-11-11-11-11-11-11-13-13-13-13-13-13-13-13-16-16-16-16-16-16-16-16---|
d--x--x--x--x--x--x--x--x--x--x--x--x--x--x--x--x--x--x--x--x--x--x--x--x---|
a--9--9--9--9--9--9--9--9-11-11-11-11-11-11-11-11-14-14-14-14-14-14-14-14---|
e---------------------------------------------------------------------------|

e-------------------------------------------------|
b-------------------------------------------------|
g-15-15-15-15-15-15-15-15-18-18-18-18-18-18-18-18-|
d--x--x--x--x--x--x--x--x--x--x--x--x--x--x--x--x-|
a-13-13-13-13-13-13-13-13-16-16-16-16-16-16-16-16-|
e-------------------------------------------------|

Ending:
(strumming pattern is difficult here so do what you want)
e-------------------------------------------------------------|
b-------------------19-17-------------------------------------|
g-16-15-16-18-16-15--x--x-20-18-16-15-16-15-16-18-16-15-16-15-|
d--x--x--x--x--x--x-16-14--x--x--x--x--x--x--x--x--x--x--x--x-|
a-14-13-14-16-14-13-------18-16-14-13-14-13-14-16-14-13-14-13-|
e-------------------------------------------------------------|

e-19-18-19-21-19-14-12-11-9-7~~~~~~~~~~-|
b--x--x--x--x--x--x--x--x-x-x~~~~~~~~~~-|
g-16-15-16-18-16-11--9--8-6-4~~~~~~~~~~-|
d---------------------------------------|
a---------------------------------------|
e---------------------------------------|

-end.
Добавлено: 04.06.2013
Другие материалы по этой песне:

Страница создана 05.03.2012
http://primanota.ru/dredg/the-canyon-behind-her-chords.htm
Привет, Гость.
Предлагаем пройти революционный курс по гитаре.
Подарок от PrimaNota.Ru, забирай!