PrimaNota.ru - самый крупный в мире бесплатный архив песенных текстов, аккордов, табулатур и нот


Dredg - Tanbark - таба, видео

Регистрация Запомнить меня
Войти через:  Facebook Google Twitter Vk Yandex Mail.ru

Dredg - Tanbark - таба, видео

Печатать
Просмотров: 85
I have 5 ways you can do the intro/chorus/bridge part to this song.
please tell me what intro would song the best.
and please comment. Thank you.
E|-9----9---7---4--|x2
B|-10---9---7---6--|
G|-11---9---7---6--|
D|-----------------|
A|-----------------|
D|-----------------|

OR......
E|-9---9---7---4---|x2
B|-10--9---7---6---|
G|-11--9---7---6---|
D|-----------------|
A|-9---7---5---4---|
D|-----------------|

OR......
E|-9---9---7---4---|x2
B|-10--9---7---6---|
G|-----------------|
D|-----------------|
A|-9---7---5---4---|
D|-----------------|

OR......
E|-9---9---7---4---|x2
B|-10--9---7---6---|
G|-----------------|
D|-----------------|
A|-----------------|
D|-----------------|

OR......
E|----------------|x2
B|-14--14--12--9--|
G|-14--13--11--10-|
D|---------12-----|
A|----------------|
E|-14--12--10--9--|

then you repeat the one of those again (x2)
With Distortion.

Verse.
E|-----|
B|-----|
G|6666-|repeat till silence.
D|7777-|
A|xxxx-|
D|4444-|

chorus
E|--------------------------------------------|
B|--------------------------------------------|
G|--------------------------------------------|
D|-choose one of the ones from the chorus-(1)-
A|--------------------------------------------|
D|--------------------------------------------|

E|On the second time around for the chorus,
B|the first note is different-10----------|
G|----------------------------11----------|
D|-IT IS---4--instead of---------(as an---|
A|---------4------------------9--example)-|
D|---------4------------------------------|

Chorus (after the other 2)
E|------------------------------------------------------------------|
B|-------------------------------------------------6666666666666666-|
G|-------------------------------------------------6666666666666666-|
D|-777777777777777766666666666666664444444444444444-----------------|
A|-4444444444444444222222222222222200000000000000004444444444444444-
D|-444444444444444422222222222222220000000000000000-----------------

E|-------------------------------------------------|
B|-------------------------------------------------|
G|-------------------------------------------------|
D|-44444444666666667777777711-11-11-11-11-11-11-11-|
A|-44444444666666667777777711-11-11-11-11-11-11-11-|
D|-44444444666666667777777711-11-11-11-11-11-11-11-|

Verse.
E|-----|
B|-----|
G|6666-|
D|7777-|
A|xxxx-|
D|4444-|

pre-chorus
E|
B|
G|
D|
A|
D|

chorus
E|--------------------------------------------|
B|--------------------------------------------|
G|--------------------------------------------|
D|-choose one of the ones from the chorus-(1)-
A|--------------------------------------------|
D|--------------------------------------------|

E|On the second time around for the chorus,
B|the first note is different-10----------|
G|----------------------------11----------|
D|-IT IS---4--instead of---------(as an---|
A|---------4------------------9--example)-|
D|---------4------------------------------|

Chorus (after the other 2)
E|------------------------------------------------------------------|
B|-------------------------------------------------6666666666666666-|
G|-------------------------------------------------6666666666666666-|
D|-777777777777777766666666666666664444444444444444-----------------|
A|-4444444444444444222222222222222200000000000000004444444444444444-
D|-444444444444444422222222222222220000000000000000-----------------

E|-------------------------------------------------|
B|-------------------------------------------------|
G|-------------------------------------------------|
D|-44444444666666667777777711-11-11-11-11-11-11-11-|
A|-44444444666666667777777711-11-11-11-11-11-11-11-|
D|-44444444666666667777777711-11-11-11-11-11-11-11-|

E|----------------------|
B|----------------------|x2
G|----------------------|
D|-4--4-7---------7--/6-|
A|-4--4-4----2--2-2-----|
D|-4--4-4----2--2-2-----|

E|---------------------4444444466667777--|
B|---------------------6666666677779999--|
G|---------------------------------------|
D|-4--4-7----2--2-7-7/6------------------|
A|-4--4-4----2--2-2----4444444466667777--|
D|-4--4-4----2--2-2----------------------|

E|---|
B|---|
G|-6-|
D|-7-|
A|-4-|play this to the pattern.
D|-4-|

E|-9----9---7---4--------9---7---4-----|
B|-10---9---7---6--------9---7---6-----|
G|-11---9---7---6--------9---7---6-----|
D|-------------------6-----------------|
A|-------------------6-----------------|
D|-------------------------------------|(6)(or i think its kind of a ghost note)
It might not be thouugh

chorus
E|--------------------------------------------|
B|--------------------------------------------|
G|--------------------------------------------|
D|-choose one of the ones from the chorus-(1)-
A|--------------------------------------------|
D|--------------------------------------------|

E|On the second time around for the chorus,
B|the first note is different-10----------|
G|----------------------------11----------|
D|-IT IS---4--instead of---------(as an---|
A|---------4------------------9--example)-|
D|---------4------------------------------|

Chorus (after the other 2)
E|------------------------------------------------------------------|
B|-------------------------------------------------6666666666666666-|
G|-------------------------------------------------6666666666666666-|
D|-777777777777777766666666666666664444444444444444-----------------|
A|-4444444444444444222222222222222200000000000000004444444444444444-
D|-444444444444444422222222222222220000000000000000-----------------

E|-------------------------------------------------|
B|-------------------------------------------------|
G|-------------------------------------------------|
D|-44444444666666667777777711-11-11-11-11-11-11-11-|
A|-44444444666666667777777711-11-11-11-11-11-11-11-|
D|-44444444666666667777777711-11-11-11-11-11-11-11-|

E|----------------------------------------------------|
B|----------------------------------------------------|
G|----------------------------------------------------|
D|-7--7-7--7--8--8-8--8-11--11-11--11-15---15-15---15-|
A|-4--4-4--4--6--6-6--6-7---7--7---7--11---11-11---11-|
D|-4--4-4--4--6--6-6--6-7---7--7---7--11---11-11---11-|

E|------|
B|------|
G|------|
D|-4--7-|
A|-4--4-|
D|-4--4-|
Добавлено: 02.08.2013
Другие материалы по этой песне:
  • Аккорды и текст

Страница создана 02.08.2013
http://primanota.ru/dredg/tanbark-chords.htm
Привет, Гость.
Предлагаем пройти революционный курс по гитаре.
Подарок от PrimaNota.Ru, забирай!