PrimaNota.ru - самый крупный в мире бесплатный архив песенных текстов, аккордов, табулатур и нот


Dredg - Spitshine - текст песни, таба, видео

Регистрация Запомнить меня
Войти через:  Facebook Google Twitter Vk Yandex Mail.ru

Dredg - Spitshine - текст песни, таба, видео

Печатать
Просмотров: 144
Авторы: Chris DeGarmo, dredg

This was tabbed by my Instructor Eric, he taught me it~

This is about 90% correct for sure, there are a few questionable parts
email me for any questions/comments
This is my very first tab
Tunning: standard

1.Intro:


e-----5-----3--2--|
B-----------------|
G---7-------------|
D-0------0---0----|
A-----------------|
E-----------------|

e-----5---3---2---|
B---0---0---0-----|
G-4---------------|
D-----------------|
A-----------------|
E-----------------|

e-------5----------|
B------------8---7-|
G-----7---7----7---|
D-3/5--------------|
A------------------|
E------------------|

e-----5---3---2---|
B-----------------|
G---7-------------|
D-0-----0---0-----|
A-----------------|
E-----------------|

2.Distortion:

e-------------------------------------------------5-------------------|
B-------10---8---7---------10---8---7-----------------8---7-----------|
G---------------------------------------------------------------------|
D-000-0----0---0--------------------------555-(5)---7---7-----[2--2-2-|2]
A-------------------------------------------------------------[2--2-2-|2]
E--------------------777-7----7---7---------------------------[0--0-0-|0]repeat the parts in[] as needed

3.Verse:

e----------------------------------------------------------|
B----------------------------------------------------------|
G-8(x16)/11(x12)\9(x8)--8(x16)/11(x12)/13(x8)\8(x16--------| repeats until chorus
D----------------------------------------------------------|
A----------------------------------------------------------|
E----------------------------------------------------------|

4.Chorus:


e-7-///-9-7-7-7-7-7-|
B-7-///-7-7-9-7-9-7-|
G-8-///-8-8-8-8-9-8-|
D-9-///-9-9-9-9-9-7-|
A-------------------|
E-------------------|   (near the end of the song, this is played clean)
the one above you're going to have to listen to the voice to catch the timing

then this

e-(4)///-///--5-///-///
B-(4)///-///--5-///-///
G--4-///-///--6-///-///
D--6-///-///--7-///-///
A--6-///-///--7-///-///
E--4-///-///--5-///-/// then repeat chorus and this


5.Verse(2)

e------------------------------------|
B------------------------------------|
G-8(x16)/11(x12)\9(x8)-8(x16)-6(x12--|/4(x8) then back to normal verse(does not repeat
D------------------------------------|
A------------------------------------|
E------------------------------------|

order:

1.intro
2.Distortion
3.Verse
4.Chorus
5. Verse 2
6.Verse
7.chorus
8.Distortion
9.Chorus, but this time clean
10.chorus
Добавлено: 16.07.2013
Другие материалы по этой песне:
  • Аккорды и текст

Страница создана 05.03.2012
http://primanota.ru/dredg/spitshine-chords.htm
Привет, Гость.
Предлагаем пройти революционный курс по гитаре.
Подарок от PrimaNota.Ru, забирай!