PrimaNota.ru - самый крупный в мире бесплатный архив песенных текстов, аккордов, табулатур и нот


Dredg - Sorry But It's Over - текст песни, таба, видео

Регистрация Запомнить меня
Войти через:  Facebook Google Twitter Vk Yandex Mail.ru

Dredg - Sorry But It's Over - текст песни, таба, видео

Печатать
Просмотров: 104
Авторы музыки: dredg
Авторы текста: Gavin Hayes
HottestTabs [http://www.hottesttabs.com]
Song: Sorry But It's Over
Band: Dredg
Tuning Drop D and then down a Step (D a d g b e)
Album: El Cielo
Tabbed by: Zeradin (Zeradin@xmail.net)


~ = Vibrato
/ and \ = Slides
^ = Bend
<5> = Natural Harmonics
pm = Palm Muting
p and h = pull off and hammer on, respectively

Intro:
E-----------------------------------------------------------------------|
B-----------------------------------------------------------------------|
G-----------------------------------------------------------------------|
D-----------------------------------------------------------------------|
A-9--9--9--9-9-9-9--10-10-10--10101010--12-12-12-12121212--9-9-9--------|
D-9--9--9--9-9-9-9--9--9--9---9-9-9-9---9--9--9--9-9-9-9---9-9-9--------|

Verse:
E--------------14-------------------------------------------|
B-----12p10-10-10-12-10------12p10-10-10-10/11/10-----------|
G-7---7-----7---7--7-7----x--x-----x---x--x--x--x-----------|
D-9---9-----9---9--9-9----9--9-----9---9--9--9--9-----------|
A-7---7-----7--------7----6--6-----6---6--6--6--6-----------|
D-----------------------------------------------------------|

Fill:
E------------------------------------------------------------------------|
B------------------------------------------------------------------------|
G------------------------------------------------------------------------|
D------------------------------------------------------------------------|
A-9--9--9--9-9-9-121212101010--------------------------------------------|
D-9--9--9--9-9-9-9-9-9-9-9--9--------------------------------------------|

Pre-Chorus Thing:
E-----------------------------------------------------------------------|
B-----------------------------------------------------------------------|
G-------14/12-12-12-12-12-12-12-----------------------------------------|
D-10----10----10-10-10-10-10-10-----------------------------------------|
A-10----10----10-10-10-10-10-10--9-9-9-9--9-9-9-12-12-12-10-10-10-------|
D-10-10-10----10-10-10-10-10-10--9-9-9-9--9-9-9-9--9--9--9--9--9--------|


Chorus:
E-----------------------------------------------------------------------|
B-----------------------------------------------------------------------|
G-----------------------------------------------------------------------|
D-9--9---9--9--9----9--9--9---9--9--9--9--9-----------------------------|
A-7--7---7--6--6----6--5--5---5--7--7--7--7-----------------------------|
D--------------------------------7--7--7--7-----------------------------|


E-----------------------------------------------------------------------|
B-----------------------------------------------------------------------|
G-----------------------------------------------------------------------|
D-----------------------------------------------------------------------|
A-9--9--9--9-9-9-9--10-10-10--10101010--12-12-12-12121212--9-9-9-9-9----|
D-9--9--9--9-9-9-9--9--9--9---9-9-9-9----9--9--9--9-9-9-9--9-9-9-9-9----|

Verse(s)

Pre-Chorus thing

Bridge:
E-----------------------------------------------------------------------|
B-----101010101010-----8-8-8-8-8-8------7-7-7-7-7-7------8-8-8-8-8-8----|
G-----x-x-x-x-x-x------x-x-x-x-x-x------x-x-x-x-x-x------x-x-x-x-x-x----|
D-9-9-9-9-9-9-9-9--9-9-9-9-9-9-9-9--5-5-5-5-5-5-5-5--9-9-9-9-9-9-9-9-x2-|
A-7-7-7-7-7-7-7-7--6-6-6-6-6-6-6-6--3-3-3-3-3-3-3-3--6-6-6-6-6-6-6-6----|
D-----------------------------------------------------------------------|

Goes into second part of chorus...

Chorus

Outro:
E-----------------------------------------------------------------------|
B-----------------------------------------------------------------------|
G-------9----9-9----9-----------9---9-----------------------------------|
Dh10-10---10-----10--10-9-9--9p7--7---7h9-------------------------------|
A-----------------------------------------------------------------------|
D-----------------------------------------------------------------------|

E-----------------------------------------------------------------------|
B-----------------------------------------------------------------------|
G-------9----12-11----9--------9---9---9--------------------------------|
D-10-10---10-------10---10-9-9--9p7--7---7h9----------------------------|
A-----------------------------------------------------------------------|
D-----------------------------------------------------------------------|

E-----------------------------------------------------------------------|
B-----------------------------------------------------------------------|
G-------12--12-12---12--------12---12-11-11-----------------------------|
D--8-8----8-------8----8--9-9----9--------------------------------------|
A-----------------------------------------------------------------------|
D-----------------------------------------------------------------------|

If you see any mistakes let me know. There shouldn't be any, but I play in
drop C so there might be some mistakes translating and/or typing.
Zeradin@xmail.net
Listen to Dredg.
Добавлено: 02.06.2013
Другие материалы по этой песне:

Страница создана 03.03.2012
http://primanota.ru/dredg/sorry-but-its-over-chords.htm
Привет, Гость.
Предлагаем пройти революционный курс по гитаре.
Подарок от PrimaNota.Ru, забирай!