PrimaNota.ru - самый крупный в мире бесплатный архив песенных текстов, аккордов, табулатур и нот


Dredg - Saviour - текст песни, таба, видео

Регистрация Запомнить меня
Войти через:  Facebook Google Twitter Vk Yandex Mail.ru

Dredg - Saviour - текст песни, таба, видео

Печатать
Просмотров: 112
Уроки эстрадного вокала в Санкт-Петербурге
Title: Saviour
Artist: Dredg
Album: The Pariah, The Parrot, The Delusion
Tabbed by: J. Kyle Callaway

I was a little disappointed to see no tabs for this great song yet, so
I sat down and knocked this out with the help of a few live videos, I
think it is probably 99% accurate, however I've seen Mark, play his parts differently or 
different positions on the neck depending how he's feeling.
I tabbed the most common, ear pleasing versions here. Enjoy!

Overdubs transcribed into 2 guitars. Can be played convincingly with one.

Tuning: Standard (Eadgbe)

Intro x1
Distortion
Fast Alternate Picking: w/drum and bass

e|--------------------------------------------------------------------|
B|--------------------------------------------------------------------|
G|--------------------------------------------------------------------|
D|--------------------------------------------------------------------|
A|--------------------------------------------------------------------|
E|-10101010101010101097---10101010101010-99-77------------------------|

e|--------------------------------------------------------------------|
B|--------------------------------------------------------------------|
G|--------------------------------------------------------------------|
D|--------------------------------------------------------------------|
A|--------------------------------------------------------------------|
E|-10101010101010101097---10101010101010-6^--5\-----------------------|

Verse
No guitar first time through heavy synthesizer and drums only.
However, the synth part can be played on bass or guitar like this.

(Play x6)
Bass or Guitar 2/Synth
e|-----------------------------------------------------------------------|
B|-----------------------------------------------------------------------|
G|-----------------------------------------------------------------------|
D|-----------------------------------------------------------------------|
A|-0-0-0-0-0-0-3^2^0--0-0-0-0-0-0-3/5---0-0-0-0-0-0-3-2-0--3-3-3-3-------|
E|----------------------------------------------------------------3-3-3-3|

Guitar on 2nd time-Tremolo Picking (strokes aren't exact listen for pattern)
(Fill.1)
e|------------------------------|-----------------------------------------|
B|--/888888888888---------------|--/88888888888---1010101010--------------|
G|----------------101010-99999\-|----------------------------99999999\----|
D|------------------------------|-----------------------------------------|
A|------------------------------|-----------------------------------------|
E|------------------------------|-----------------------------------------|

Guitar on 4th time (Let Ring)(listen for proper rhythm)
e|------------------------------------------------------------------------|
B|------------------------------------------------------------------------|
G|------0----------------------------7--9~--------------------------------|
D|----------0----0----0-0---0-----/7--7-----------------------------------|
A|----7--7----7---7----7-7---7--------------------------------------------|
E|--5---------------------------------------------------------------------|


(w heavy/palm mute)
e|------------------------------------------------------------------------|
B|------------------------------------------------------------------------|
G|------------------------------5\7-5-4-5-4-------------------------------|
D|---777777777777777777777777---x-x-x-x-x-x-------------------------------|
A|------------------------------7\9-7-5-7-5-------------------------------|
E|------------------------------------------------------------------------|

e|------------------------------------------------------------------------|
B|------------------------------------------------------------------------|
G|-------------------------------------------------------7---9~\----------|
D|---777777777777777777777777---101010101010101010\---/7--7---------------|
A|------------------------------------------------------------------------|
E|------------------------------------------------------------------------|


Chorus

Guitar1 (Let Ring)
e|------3------0--3-------------------------------------------------------|
B|-------5--5------5------------------------------------------------------|
G|----5------5--5--------/7-5~-7-5~-4-------------------------------------|
D|--0---------------------------------7~----------------------------------|
A|------------------------------------------------------------------------|
E|------------------------------------------------------------------------|

e|------3------0----3-----------------------------------------------------|
B|-------5--5---------5---------------------------------------------------|
G|----5------5--5-----------/7-5~--7/9------------------------------------|
D|--0----------------------------------9\7~-------------------------------|
A|------------------------------------------------------------------------|
E|------------------------------------------------------------------------|

Guitar2 (x2)
e|--------------------------------------------------------------|
B|--------------------------------------------------------------|
G|--------------------------------------------------------------|
D|---7-7-7-7-7-7-7-7--10101010101010----------------------------|
A|---5-5-5-5-5-5-5-5--8-8-8-8-8-8-8---x-5-77777---x10-77777777--|
E|------------------------------------x-3-55555---x8--55555555--|

(small drum fill)
Then
e|----------|
B|----------|
G|----------|
D|----------|
A|--8-7\----|
E|--6-5\----|

(verse again)

(Chorus)

Then (This part sounds to be mainly bass but I play it along with with)
e|----------------|
B|----------------|
G|----------------|
D|----------------|
A|----------------|
E|--3^5-5--3^5-5--|

Bridge
Guitar1
e|------------------------------------------------------------------------|
B|------------------------------------------------------------------------|
G|------------------------------------------------------------------------|
D|------------------------------------------------------------------------|
A|------------------------------------------------------------------------|
E|--5\---3--5\---5\---3--5\---5\--3--5\-------5--3--5^--------------------|
Guitar2
e|------------------------------------------------------------------------|
B|------------------------------------------------------------------------|
G|------------------------------------------------------------------------|
D|-(7)--(5)(7)--(7)--(5)(7)--(7)-(5)(7)------(7)(5)(7)--------------------|
A|--7----5--7----7----5--7----7---5--7--------7--5--7---------------------|
E|--5----3--5----5----3--5----5---3--5--------5--3--5---------------------|

Guitar1 (Let ring) (repeat twice)
e|------------------------------------------------------------------------|
B|------------------------------------------------------------------------|
G|------------------------------------------------------------------------|
D|-3---3-2-----3------------2---------------------------------------------|
A|-3---3-2-----3------------2---------------------------------------------|
E|-1---1-0-----1(1/4bend)---0---------------------------------------------|

Guitar2(reverb)(delay)   (Tremolo picking*)
e|---------------------|--------------------------------------------------|
B|---------------------|--12*--13*--10*----12*--13*--15*--16*-------------|
G|---------------------|--------------------------------------------------|
D|--X/\/---------------|--------------------------------------------------|
A|--X/\/---------------|--------------------------------------------------|
E|--x/\/---------------|--------------------------------------------------|
   *pick scrapes
e|------------------------------------------------------------------------|
B|-12*--13*--10*-9*\------------------------------------------------------|
G|------------------------------------------------------------------------|
D|------------------------------------------------------------------------|
A|------------------------------------------------------------------------|
E|------------------------------------------------------------------------|

(Vocal break)
Then
e|------------------------------------------------------------------------|
B|------------------------------------------------------------------------|
G|------0----------------------------7--9~--------------------------------|
D|----------0----0----0-0---0-----/7--7-----------------------------------|
A|----7--7----7---7----7-7---7--------------------------------------------|
E|--5---------------------------------------------------------------------|

(Chorus)

Ending Fill
Guitar1
e|------------------------------------------------------------------------|
B|------------------------------------------------------------------------|
G|------------------------------------------------------------------------|
D|------------------------------------------------------------------------|
A|------------------------------------------------------------------------|
E|--5\----3--5\-----3--5\----3--5\----------------------------------------|

Guitar2
e|------------------------------------------------------------------------|
B|------------------------------------------------------------------------|
G|------------------------------------------------------------------------|
D|-(7)---(5)(7)----(5)(7)---(5)(7)----------------------------------------|
A|--7\----5--7\-----5--7\----5--7\----------------------------------------|
E|--5\----3--5\-----3--5\----3--5\----------------------------------------|

OUtro
Guitar1 (x2)
e|------------------------------|-----------------------------------------|
B|--/888888888888---------------|--/88888888888---1010101010--------------|
G|----------------101010-99999\-|----------------------------99999999\----|
D|------------------------------|-----------------------------------------|
A|------------------------------|-----------------------------------------|
E|------------------------------|-----------------------------------------|

Guitar2
e|---------------------------|
B|---------------------------|
G|---------------------------|
D|---------------------------|
A|---------------------------|
E|---555555-875---55555555---|

e|---------------------------|
B|---------------------------|
G|---------------------------|
D|---------------------------|
A|---------------------------|
E|---555555-875---8888883333-|

e|---------------------------|
B|---------------------------|
G|---------------------------|
D|---------------------------|
A|---------------------------|
E|---555555-875---55555555---|

e|---------------------------|
B|---------------------------|
G|---------------------------|
D|---------------------------|
A|---------------888888101010|
E|---555555-875--------------|


Guitar1&2
e|--------------------------------------------------------------------|
B|--------------------------------------------------------------------|
G|--------------------------------------------------------------------|
D|--------------------------------------------------------------------|
A|--------------------------------------------------------------------|
E|-10101010101010101097---10101010101010-99-77------------------------|

e|--------------------------------------------------------------------|
B|--------------------------------------------------------------------|
G|--------------------------------------------------------------------|
D|--------------------------------------------------------------------|
A|--------------------------------------------------------------------|
E|-10101010101010101097---10101010101010-6^-(6)\----------------------|
Добавлено: 10.08.2013
Другие материалы по этой песне:
  • Аккорды и текст

Страница создана 10.08.2013
http://primanota.ru/dredg/saviour-chords.htm
Привет, Гость.
Предлагаем пройти революционный курс по гитаре.
Подарок от PrimaNota.Ru, забирай!