PrimaNota.ru - самый крупный в мире бесплатный архив песенных текстов, аккордов, табулатур и нот


Dredg - Planting Seeds - текст песни, бас-таба, видео

Регистрация Запомнить меня
Войти через:  Facebook Google Twitter Vk Yandex Mail.ru

Dredg - Planting Seeds - текст песни, бас-таба, видео

Печатать
Просмотров: 115
Авторы: dredg

Wait for bass to come in 

           intro           0:12
--------------------------|------------------------|
--------------------------|------------------------|
--------------------------|-0~---3-----------------|
--------------------------|---------1~---3~---5~---|

verse 0:24

|:--------------------------------------------------|-----------------------------------|
|:--------------------------------------------------|-----------------------------------|
|:----121212----121212\-------121212----121212\-----|--888\-----888\------888----101010-|
|:-12---------12------------12---------12-----------|6--------6---------6-----8---------|

|:--------------------------------------------------|-----------------------------------:|
|:--------------------------------------------------|10-------10------10----------------:|
|:----121212----121212\-------121212----121212\-----|---888------888-----888---101010---:|
|:-12---------12------------12---------12-----------|------------------------8----------:|


Chorus 1:02

|----------------------------------------------------------------------:|
|----------------------------------------------------------------------:|
|----------------------------------------------------------------------:|
|5---5-5\1---1-1-3---3-3-5---5-5-/15\-5---5-5-8---8-8-3---3-3---5---5-5:|

verse 2- same as verse 1
chorus

Bridge 2:29

|-----------------------------------|:----------------------------------------:|
|-----------------------------------|:----------------------------------------:|
|-----------------------------------|:----------------------------------------:|
|9~-9~--9~-9~--9-12~-12~-12-13~-13~\|:9-9-9-9-9-9-9-9-12-12-12-12-13-13-15-15\:|x4

Chorus
verse3/outro
Добавлено: 12.09.2013
Другие материалы по этой песне:
  • Аккорды и текст

Страница создана 09.06.2012
http://primanota.ru/dredg/planting-seeds-chords.htm
Привет, Гость.
Предлагаем пройти революционный курс по гитаре.
Подарок от PrimaNota.Ru, забирай!