PrimaNota.ru - самый крупный в мире бесплатный архив песенных текстов, аккордов, табулатур и нот


Dredg - Penguins In The Desert - текст песни, таба, видео

Регистрация Запомнить меня
Войти через:  Facebook Google Twitter Vk Yandex Mail.ru

Dredg - Penguins In The Desert - текст песни, таба, видео

Печатать
Просмотров: 91
Авторы: dredg


Penguins In The Desert (dropC)
by. Goon praxia

i like dredg an we make a cover of this song but how i play in this tuning
i transcribed the whole song into drop c.

enjoy





     Following "Movement II : Lyndon" transition...                             
     S                                              S S S S S S S S S S S S S S 
D||-----------------------------------------------------------------------------
A||-----------------------------------------------------------------------------
F||-----------------------------------------------------------------9-9-9-------
C||--6----------------------------------------------6-6-6-x-x-x-x-x-7-7-7-x-4-4-
G||--6----------------------------------------------6-6-6-x-x-x-x-x-7-7-7-x-4-4-
C||--6----------------------------------------------6-6-6-x-x-x-x-x-7-7-7-x-4-4-


  Slight distorsion and low volume                                  
  S                                S S S S S S S S  S  S S S S S S  
-------------------------------------------------------------------|
-------------------------------------------------------------------|
---------------------------------------------------(9)-9-9-9-------|
--6--------------------------------6-6-6-x-x-x-x-6--7--7-7-7-4-4-4-|
--6--------------------------------6-6-6-x-x-x-x-6--7--7-7-7-4-4-4-|
--6--------------------------------6-6-6-x-x-x-x-6--7--7-7-7-4-4-4-|


  S S S S S S S S S S S S S S S S    S S S S S S S S S  S  S S S S S S  
----------------------------------|------------------------------------|
----------------------------------|------------------------------------|
--------------------9-9-9---------|--------------------(9)-9-9-9-------|
--6-6-6-6-x-x-x-x-x-7-7-7-x-4-4-4-|--6-6-6-6-x-x-x-x-6--7--7-7-7-4-4-4-|
--6-6-6-6-x-x-x-x-x-7-7-7-x-4-4-4-|--6-6-6-6-x-x-x-x-6--7--7-7-7-4-4-4-|
--6-6-6-6-x-x-x-x-x-7-7-7-x-4-4-4-|--6-6-6-6-x-x-x-x-6--7--7-7-7-4-4-4-|


  Loud disto now !                                
  S                S S S S S S S S S S S S S S S  
-------------------------------------------------|
-------------------------------------------------|
-----------------------------------9-9-9---------|
--6----------------6-6-6-x-x-x-x-x-7-7-7-x-4-4-4-|
--6----------------6-6-6-x-x-x-x-x-7-7-7-x-4-4-4-|
--6----------------6-6-6-x-x-x-x-x-7-7-7-x-4-4-4-|


  S S S S S S S S S  S  S S S S S S    S S S S S S S S S S S S S S S S  
------------------------------------|----------------------------------|
------------------------------------|----------------------------------|
--------------------(9)-9-9-9-------|--------------------9-9-9---------|
--6-6-6-6-x-x-x-x-6--7--7-7-7-4-4-4-|--6-6-6-6-x-x-x-x-x-7-7-7-x-4-4-4-|
--6-6-6-6-x-x-x-x-6--7--7-7-7-4-4-4-|--6-6-6-6-x-x-x-x-x-7-7-7-x-4-4-4-|
--6-6-6-6-x-x-x-x-6--7--7-7-7-4-4-4-|--6-6-6-6-x-x-x-x-x-7-7-7-x-4-4-4-|


  S S S S S S S S S  S  S S S S S S    S S S S S S S S S S S S S S S S  
------------------------------------|----------------------------------|
------------------------------------|----------------------------------|
--------------------(9)-9-9-9-------|--------------------9-9-9---------|
--6-6-6-6-x-x-x-x-6--7--7-7-7-4-4-4-|--6-6-6-6-x-x-x-x-x-7-7-7-x-4-4-4-|
--6-6-6-6-x-x-x-x-6--7--7-7-7-4-4-4-|--6-6-6-6-x-x-x-x-x-7-7-7-x-4-4-4-|
--6-6-6-6-x-x-x-x-6--7--7-7-7-4-4-4-|--6-6-6-6-x-x-x-x-x-7-7-7-x-4-4-4-|


  S S S S S S S S S  S  S S S S S S    S S S S S S S S S S S S S S S S  
------------------------------------|----------------------------------|
------------------------------------|----------------------------------|
--------------------(9)-9-9-9-------|--------------------9-9-9---------|
--6-6-6-6-x-x-x-x-6--7--7-7-7-4-4-4-|--6-6-6-6-x-x-x-x-x-7-7-7-x-4-4-4-|
--6-6-6-6-x-x-x-x-6--7--7-7-7-4-4-4-|--6-6-6-6-x-x-x-x-x-7-7-7-x-4-4-4-|
--6-6-6-6-x-x-x-x-6--7--7-7-7-4-4-4-|--6-6-6-6-x-x-x-x-x-7-7-7-x-4-4-4-|


  S S S S S S S S S  S  S S S S S S    S S S S E  E  S  S   S   S   S  S S S  
------------------------------------|----------------------------------------|
------------------------------------|----------------------------------------|
--------------------(9)-9-9-9-------|------------------(9)-(9)-(9)-(9)-------|
--6-6-6-6-x-x-x-x-6--7--7-7-7-4-4-4-|--6-6-6-6-6--6--L--7---7---7---7--4-4-4-|
--6-6-6-6-x-x-x-x-6--7--7-7-7-4-4-4-|--6-6-6-6-6--6--L--7---7---7---7--4-4-4-|
--6-6-6-6-x-x-x-x-6--7--7-7-7-4-4-4-|--6-6-6-6-6--6--L--7---7---7---7--4-4-4-|


  S S S S E  E  S  S   S   S   S  S S S  
----------------------------------------|
----------------------------------------|
------------------(9)-(9)-(9)-(9)-------|
--6-6-6-6-6--6--L--7---7---7---7--4-4-4-|
--6-6-6-6-6--6--L--7---7---7---7--4-4-4-|
--6-6-6-6-6--6--L--7---7---7---7--4-4-4-|


  S S S S E  E  S  S   S   S   S  S S S  
----------------------------------------|
----------------------------------------|
------------------(9)-(9)-(9)-(9)-------|
--6-6-6-6-6--6--L--7---7---7---7--4-4-4-|
--6-6-6-6-6--6--L--7---7---7---7--4-4-4-|
--6-6-6-6-6--6--L--7---7---7---7--4-4-4-|


  S S S S E  E  S  S   S   S   S  S S S    S S S S S S S S S S S S S S S S  
----------------------------------------|----------------------------------|
----------------------------------------|----------------------------------|
------------------(9)-(9)-(9)-(9)-------|--------------------9-9-9---------|
--6-6-6-6-6--6--L--7---7---7---7--4-4-4-|--6-6-6-6-x-x-x-x-x-7-7-7-x-4-4-4-|
--6-6-6-6-6--6--L--7---7---7---7--4-4-4-|--6-6-6-6-x-x-x-x-x-7-7-7-x-4-4-4-|
--6-6-6-6-6--6--L--7---7---7---7--4-4-4-|--6-6-6-6-x-x-x-x-x-7-7-7-x-4-4-4-|


  S S S S S S S S S  S  S S S S S S    S S S S S S S S S S S S S S S S  
------------------------------------|----------------------------------|
------------------------------------|----------------------------------|
--------------------(9)-9-9-9-------|--------------------9-9-9---------|
--6-6-6-6-x-x-x-x-6--7--7-7-7-4-4-4-|--6-6-6-6-x-x-x-x-x-7-7-7-x-4-4-4-|
--6-6-6-6-x-x-x-x-6--7--7-7-7-4-4-4-|--6-6-6-6-x-x-x-x-x-7-7-7-x-4-4-4-|
--6-6-6-6-x-x-x-x-6--7--7-7-7-4-4-4-|--6-6-6-6-x-x-x-x-x-7-7-7-x-4-4-4-|


  S S S S S S S S S  S  S S S S S S    S S S S E  E  S  S   S   S   S  S S S  
------------------------------------|----------------------------------------|
------------------------------------|----------------------------------------|
--------------------(9)-9-9-9-------|------------------(9)-(9)-(9)-(9)-------|
--6-6-6-6-x-x-x-x-6--7--7-7-7-4-4-4-|--6-6-6-6-6--6--L--7---7---7---7--4-4-4-|
--6-6-6-6-x-x-x-x-6--7--7-7-7-4-4-4-|--6-6-6-6-6--6--L--7---7---7---7--4-4-4-|
--6-6-6-6-x-x-x-x-6--7--7-7-7-4-4-4-|--6-6-6-6-6--6--L--7---7---7---7--4-4-4-|


  S S S S E  E  S  S   S   S   S  S S S  
----------------------------------------|
----------------------------------------|
------------------(9)-(9)-(9)-(9)-------|
--6-6-6-6-6--6--L--7---7---7---7--4-4-4-|
--6-6-6-6-6--6--L--7---7---7---7--4-4-4-|
--6-6-6-6-6--6--L--7---7---7---7--4-4-4-|


  S S S S E  E  S  S   S   S   S  S S S  
----------------------------------------|
----------------------------------------|
------------------(9)-(9)-(9)-(9)-------|
--6-6-6-6-6--6--L--7---7---7---7--4-4-4-|
--6-6-6-6-6--6--L--7---7---7---7--4-4-4-|
--6-6-6-6-6--6--L--7---7---7---7--4-4-4-|


  S S S S E  E  S  S   S   S   S  S S S  
----------------------------------------|
----------------------------------------|
------------------(9)-(9)-(9)-(9)-------|
--6-6-6-6-6--6--L--7---7---7---7--4-4-4-|
--6-6-6-6-6--6--L--7---7---7---7--4-4-4-|
--6-6-6-6-6--6--L--7---7---7---7--4-4-4-|


  S S S S E  E  S  S   S   S   S  S S S  
----------------------------------------|
----------------------------------------|
------------------(9)-(9)-(9)-(9)-------|
--6-6-6-6-6--6--L--7---7---7---7--4-4-4-|
--6-6-6-6-6--6--L--7---7---7---3--4-4-4-|
--6-6-6-6-6--6--L--7---7---7---7--4-4-4-|


  S S S S E  E  S  S   S   S   S  S S S  
----------------------------------------|
----------------------------------------|
------------------(9)-(9)-(9)-(9)-------|
--6-6-6-6-6--6-----7---7---7---7--4-4-4-|
--6-6-6-6-6--6--L--7---7---7---7--4-4-4-|
--6-6-6-6-6--6--L--7---7---7---7--4-4-4-|


  S S S S E  E  S  S   S   S   S  S S S  
----------------------------------------|
----------------------------------------|
------------------(9)-(9)-(9)-(9)-------|
--6-6-6-6-6--6--L--7---7---7---7--4-4-4-|
--6-6-6-6-0--6--L--7---7---7---7--4-4-4-|
--6-6-6-6-6--6--L--7---7---7---7--4-4-4-|


  S S S S E  E  S  S   S   S   S  S S S    S S S S S S S S S S S S S S S S  
----------------------------------------|----------------------------------|
----------------------------------------|----------------------------------|
------------------(9)-(9)-(9)-(9)-------|--------------------9-9-9---------|
--6-6-6-6-6--6--L--7---7---7---7--4-4-4-|--6-6-6-6-x-x-x-x-x-7-7-7-x-4-4-4-|
--6-6-6-6-6--6--L--7---7---7---7--4-4-4-|--6-6-6-6-x-x-x-x-x-7-7-7-x-4-4-4-|
--6-6-6-6-6--6--L--7---7---7---7--4-4-4-|--6-6-6-6-x-x-x-x-x-7-7-7-x-4-4-4-|


  S S S S S S S S S  S  S S S S S S    S S S S S S S S S S S S S S S S  
------------------------------------|----------------------------------|
------------------------------------|----------------------------------|
--------------------(9)-9-9-9-------|--------------------9-9-9---------|
--6-6-6-6-x-x-x-x-6--7--7-7-7-4-4-4-|--6-6-6-6-x-x-x-x-x-7-7-7-x-4-4-4-|
--6-6-6-6-x-x-x-x-6--7--7-7-7-4-4-4-|--6-6-6-6-x-x-x-x-x-7-7-7-x-4-4-4-|
--6-6-6-6-x-x-x-x-6--7--7-7-7-4-4-4-|--6-6-6-6-x-x-x-x-x-7-7-7-x-4-4-4-|


            w/ delay (lower octave is for sound)                                
  S S S S   T                                  T   T  T   T  T   T  T   T  T   T
--------------------------------------------------------------------------------
--------------------------------------------------------------------------------
-----------13------------------------------------(13)---(13)---(13)---(13)---(13
--6-6-6-6-----------------------------------------------------------------------
--6-6-6-6-(11)-----------------------------------(11)---(11)---(11)---(11)---(11
--6-6-6-6-----------------------------------------------------------------------


    T  T   T  T   T  T   T  T   T  T   T  T  T  T   T  T   T  T   T  T   T  T   
--------------------------------------------------------------------------------
---14----(14)---(14)---(14)---(14)---(14)---12----(12)---(12)---(12)---(12)---(1
--------------------------------------------------------------------------------
--(11)---(11)---(11)---(11)---(11)---(11)---(9)----(9)----(9)----(9)----(9)----(
--------------------------------------------------------------------------------
--------------------------------------------------------------------------------


   T  T   T  T   T  T   T  T   T  T   T  T  T  T   T  T   T  T   T  T   T  T   T
----------------------------------------------------------------14----(14)---(14
--11----(11)---(11)---(11)---(11)---(11)---12----(12)---(12)--------------------
---------------------------------------------------------------(11)---(11)---(11
--(8)----(8)----(8)----(8)----(8)----(8)---(9)----(9)----(9)--------------------
--------------------------------------------------------------------------------
--------------------------------------------------------------------------------


   T  T   T  T   T  T   T  T   T  T   T  T   T  T   T  T   T  T   T  T   T  T   
--------------------------------------------------------------------------------
--------------------------------------------------------------------------------
--11h----13----(13)---(13)---(13)---(13)----13----(13)---(13)---(13)---(13)---(1
--------------------------------------------------------------------------------
--(9)---(11)---(11)---(11)---(11)---(11)---(11)---(11)---(11)---(11)---(11)---(1
--------------------------------------------------------------------------------


   T  T   T  T   T  T   T  T   T  T   T  T   T  T   T  T   T  T   T  T   T  T   
--------------------------------------------------------------------------------
--------------------------------------------------------------------------------
--11h----13----(13)---(13)---(13)---(13)----13----(13)---(13)---(13)---(13)---(1
--------------------------------------------------------------------------------
--(9)---(11)---(11)---(11)---(11)---(11)---(11)---(11)---(11)---(11)---(11)---(1
--------------------------------------------------------------------------------


    T  T   T  T   T  T   T  T   T  T   T  T  T  T   T  T   T  T   T  T   T  T   
--------------------------------------------------------------------------------
---14----(14)---(14)---(14)---(14)---(14)---12----(12)---(12)---(12)---(12)---(1
--------------------------------------------------------------------------------
--(11)---(11)---(11)---(11)---(11)---(11)---(9)----(9)----(9)----(9)----(9)----(
--------------------------------------------------------------------------------
--------------------------------------------------------------------------------


   T  T   T  T   T  T   T  T   T  T   T  T  T  T   T  T   T  T   T  T   T  T   T
----------------------------------------------------------------14----(14)---(14
--11----(11)---(11)---(11)---(11)---(11)---12----(12)---(12)--------------------
---------------------------------------------------------------(11)---(11)---(11
--(8)----(8)----(8)----(8)----(8)----(8)---(9)----(9)----(9)--------------------
--------------------------------------------------------------------------------
--------------------------------------------------------------------------------


   T  T   T  T   T  T   T  T   T  T   T  T   T  T   T  T   T  T   T  T   T  T   
--------------------------------------------------------------------------------
--------------------------------------------------------------------------------
--11h----13----(13)---(13)---(13)---(13)----13----(13)---(13)---(13)---(13)---(1
--------------------------------------------------------------------------------
--(9)---(11)---(11)---(11)---(11)---(11)---(11)---(11)---(11)---(11)---(11)---(1
--------------------------------------------------------------------------------


   T  T   T  T   T  T   T  T   T  T   T  T   T  T   T  T   T  T   T  T   T  T   
--------------------------------------------------------------------------------
--------------------------------------------------------------------------------
--11h----13----(13)---(13)---(13)---(13)----13----(13)---(13)---(13)---(13)---(1
--------------------------------------------------------------------------------
--(9)---(11)---(11)---(11)---(11)---(11)---(11)---(11)---(11)---(11)---(11)---(1
--------------------------------------------------------------------------------


    T  T   T  T   T  T   T  T   T  T   T  T  T  T   T  T   T  T   T  T   T  T   
--------------------------------------------------------------------------------
---14----(14)---(14)---(14)---(14)---(14)---12----(12)---(12)---(12)---(12)---(1
--------------------------------------------------------------------------------
--(11)---(11)---(11)---(11)---(11)---(11)---(9)----(9)----(9)----(9)----(9)----(
--------------------------------------------------------------------------------
--------------------------------------------------------------------------------


   T  T   T  T   T  T   T  T   T  T   T  T  T  T   T  T   T  T   T  T   T  T   T
----------------------------------------------------------------14----(14)---(14
--11----(11)---(11)---(11)---(11)---(11)---12----(12)---(12)--------------------
---------------------------------------------------------------(11)---(11)---(11
--(8)----(8)----(8)----(8)----(8)----(8)---(9)----(9)----(9)--------------------
--------------------------------------------------------------------------------
--------------------------------------------------------------------------------


   T  T   T  T   T  T   T  T   T  T   T  T   T  T   T  T   T  T   T  T   T  T   
--------------------------------------------------------------------------------
--------------------------------------------------------------------------------
--11h----13----(13)---(13)---(13)---(13)----13----(13)---(13)---(13)---(13)---(1
--------------------------------------------------------------------------------
--(9)---(11)---(11)---(11)---(11)---(11)---(11)---(11)---(11)---(11)---(11)---(1
--------------------------------------------------------------------------------


   T  T   T  T   T  T   T  T   T  T   T  T   T  T   T  T   T  T   T  T   T  T   
--------------------------------------------------------------------------------
--------------------------------------------------------------------------------
--11h----13----(13)---(13)---(13)---(13)----13----(13)---(13)---(13)---(13)---(1
--------------------------------------------------------------------------------
--(9)---(11)---(11)---(11)---(11)---(11)---(11)---(11)---(11)---(11)---(11)---(1
--------------------------------------------------------------------------------


    T  T   T  T   T  T   T  T   T  T   T  T  T  T   T  T   T  T   T  T   T  T   
--------------------------------------------------------------------------------
---14----(14)---(14)---(14)---(14)---(14)---12----(12)---(12)---(12)---(12)---(1
--------------------------------------------------------------------------------
--(11)---(11)---(11)---(11)---(11)---(11)---(9)----(9)----(9)----(9)----(9)----(
--------------------------------------------------------------------------------
--------------------------------------------------------------------------------


   T  T   T  T   T  T   T  T   T  T   T  T  T  T   T  T   T  T   T  T   T  T   T
----------------------------------------------------------------14----(14)---(14
--11----(11)---(11)---(11)---(11)---(11)---12----(12)---(12)--------------------
---------------------------------------------------------------(11)---(11)---(11
--(8)----(8)----(8)----(8)----(8)----(8)---(9)----(9)----(9)--------------------
--------------------------------------------------------------------------------
--------------------------------------------------------------------------------


   T  T   T  T   T  T   T  T   T  T   T  T   T  T   T  T   T  T   T  T   T  T   
--------------------------------------------------------------------------------
--------------------------------------------------------------------------------
--11h----13----(13)---(13)---(13)---(13)----13----(13)---(13)---(13)---(13)---(1
--------------------------------------------------------------------------------
--(9)---(11)---(11)---(11)---(11)---(11)---(11)---(11)---(11)---(11)---(11)---(1
--------------------------------------------------------------------------------


   T  T   T  T   T  T   T  T   T  T   T  T   T  T   T  T   T  T   T  T   T  T   
--------------------------------------------------------------------------------
--------------------------------------------------------------------------------
--11h----13----(13)---(13)---(13)---(13)----13----(13)---(13)---(13)---(13)---(1
--------------------------------------------------------------------------------
--(9)---(11)---(11)---(11)---(11)---(11)---(11)---(11)---(11)---(11)---(11)---(1
--------------------------------------------------------------------------------


    T  T   T  T   T  T   T  T   T  T   T  T  T  T   T  T   T  T   T  T   T  T   
--------------------------------------------------------------------------------
---14----(14)---(14)---(14)---(14)---(14)---12----(12)---(12)---(12)---(12)---(1
--------------------------------------------------------------------------------
--(11)---(11)---(11)---(11)---(11)---(11)---(6)----(9)----(9)----(9)----(9)----(
--------------------------------------------------------------------------------
--------------------------------------------------------------------------------


   T  T   T  T   T  T   T  T   T  T   T  T  T  T   T  T   T  T   T  T   T  T   T
----------------------------------------------------------------14----(14)---(14
--11----(11)---(11)---(11)---(11)---(11)---12----(12)---(12)--------------------
---------------------------------------------------------------(11)---(11)---(11
--(8)----(8)----(8)----(8)----(8)----(8)---(9)----(9)----(9)--------------------
--------------------------------------------------------------------------------
--------------------------------------------------------------------------------


   T  T   T  T   T  T   T  T   T  T   T  T   T  T   T  T   T  T   T  T   T  T   
--------------------------------------------------------------------------------
--------------------------------------------------------------------------------
--11h----13----(13)---(13)---(13)---(13)----13----(13)---(13)---(13)---(13)---(1
--------------------------------------------------------------------------------
--(9)---(11)---(11)---(11)---(11)---(11)---(11)---(11)---(11)---(11)---(11)---(1
--------------------------------------------------------------------------------


   T  T   T  T   T  T   T  T   T  T   T  T   T  T   T  T   T  T   T  T   T  T   
--------------------------------------------------------------------------------
--------------------------------------------------------------------------------
--11h----13----(13)---(13)---(13)---(13)----13----(13)---(13)---(13)---(13)---(1
--------------------------------------------------------------------------------
--(9)---(11)---(11)---(11)---(11)---(11)---(11)---(11)---(11)---(11)---(11)---(1
--------------------------------------------------------------------------------


    T  T   T  T   T  T   T  T   T  T   T  T  T  T   T  T   T  T   T  T   T  T   
--------------------------------------------------------------------------------
---14----(14)---(14)---(14)---(14)---(14)---12----(12)---(12)---(12)---(12)---(1
--------------------------------------------------------------------------------
--(11)---(11)---(11)---(11)---(11)---(11)---(9)----(9)----(9)----(9)----(9)----(
--------------------------------------------------------------------------------
--------------------------------------------------------------------------------


   T  T   T  T   T  T   T  T   T  T   T  T  T  T   T  T   T  T   T  T   T  T   T
----------------------------------------------------------------14----(14)---(14
--11----(11)---(11)---(11)---(11)---(11)---12----(12)---(12)--------------------
---------------------------------------------------------------(11)---(11)---(11
--(8)----(8)----(8)----(8)----(8)----(8)---(9)----(9)----(9)--------------------
--------------------------------------------------------------------------------
--------------------------------------------------------------------------------


   T  T   T  T   T  T   T  T   T  T   T  T   T  T   T  T   T  T   T  T   T  T   
--------------------------------------------------------------------------------
--------------------------------------------------------------------------------
--11h----13----(13)---(13)---(13)---(13)----13----(13)---(13)---(13)---(13)---(1
--------------------------------------------------------------------------------
--(9)---(11)---(11)---(11)---(11)---(11)---(11)---(11)---(11)---(11)---(11)---(1
--------------------------------------------------------------------------------


   T  T   T  T   T  T   T  T   T  T   T  T   T  T   T  T   T  T   T  T   T  T   
--------------------------------------------------------------------------------
--------------------------------------------------------------------------------
--11h----13----(13)---(13)---(13)---(13)----13----(13)---(13)---(13)---(13)---(1
--------------------------------------------------------------------------------
--(9)---(11)---(11)---(11)---(11)---(11)---(11)---(11)---(11)---(11)---(11)---(1
--------------------------------------------------------------------------------


    T  T   T  T   T  T   T  T   T  T   T  T  T  T   T  T   T  T   T  T   T  T   
--------------------------------------------------------------------------------
---14----(14)---(14)---(14)---(14)---(14)---12----(12)---(12)---(12)---(12)---(1
--------------------------------------------------------------------------------
--(11)---(11)---(11)---(11)---(11)---(11)---(9)----(9)----(9)----(9)----(9)----(
--------------------------------------------------------------------------------
--------------------------------------------------------------------------------


   T  T   T  T   T  T   T  T   T  T   T  T  T  T   T  T   T  T   T  T   T  T   T
----------------------------------------------------------------14----(14)---(14
--11----(11)---(11)---(11)---(11)---(11)---12----(12)---(12)--------------------
---------------------------------------------------------------(11)---(11)---(11
--(8)----(8)----(8)----(8)----(8)----(8)---(9)----(9)----(9)--------------------
--------------------------------------------------------------------------------
--------------------------------------------------------------------------------


   T  T   T  T   T  T   T  T   T  T   T  T   T  T   T  T   T  T   T  T   T  T   
--------------------------------------------------------------------------------
--------------------------------------------------------------------------------
--11h----13----(13)---(13)---(13)---(13)----13----(13)---(13)---(13)---(13)---(1
--------------------------------------------------------------------------------
--(9)---(11)---(11)---(11)---(11)---(11)---(11)---(11)---(11)---(11)---(11)---(1
--------------------------------------------------------------------------------


   T  T   T  T   T  T   T  T   T  T   T  T   T  T   T  T   T  T   T  T   T  T   
--------------------------------------------------------------------------------
--------------------------------------------------------------------------------
--11h----13----(13)---(13)---(13)---(13)----13----(13)---(13)---(13)---(13)---(1
--------------------------------------------------------------------------------
--(9)---(11)---(11)---(11)---(11)---(11)---(11)---(11)---(11)---(11)---(11)---(1
--------------------------------------------------------------------------------


    T  T   T  T   T  T   T  T   T  T   T  T  T  T   T  T   T  T   T  T   T  T   
--------------------------------------------------------------------------------
---14----(14)---(14)---(14)---(14)---(14)---12----(12)---(12)---(12)---(12)---(1
--------------------------------------------------------------------------------
--(11)---(11)---(11)---(11)---(11)---(11)---(9)----(9)----(9)----(9)----(9)----(
--------------------------------------------------------------------------------
--------------------------------------------------------------------------------


   T  T   T  T   T  T   T  T   T  T   T  T  T  T   T  T   T  T   T  T   T  T   T
----------------------------------------------------------------14----(14)---(14
--11----(11)---(11)---(11)---(11)---(11)---12----(12)---(12)--------------------
---------------------------------------------------------------(11)---(11)---(11
--(8)----(8)----(8)----(8)----(8)----(8)---(9)----(9)----(9)--------------------
--------------------------------------------------------------------------------
--------------------------------------------------------------------------------


   T  T   T  T   T  T   T  T   T  T   T  T   T  T  T  T   T  T   T  T   T  T   T
--------------------------------------------------------------------------------
--------------------------------------------------------------------------------
--11h----13----(13)---(13)---(13)---(13)---(13)---11----(11)---(11)---(11)---(11
--------------------------------------------------------------------------------
--(9)---(11)---(11)---(11)---(11)---(11)---(11)---(9)----(9)----(9)----(9)----(9
--------------------------------------------------------------------------------


   T  T   T  T   T  T   T  T   T  T   T  T   T  T  T  T   T  T   T  T   T  T   T
--------------------------------------------------------------------------------
--------------------------------------------------------------------------------
--11h----13----(13)---(13)---(13)---(13)---(13)---11----(11)---(11)---(11)---(11
--------------------------------------------------------------------------------
--(9)---(11)----(1)---(11)---(11)---(11)---(11)---(9)---(19)----(9)----(9)----(9
--------------------------------------------------------------------------------


   T  T   T  T   T  T   T  T   T  T   T  T   T  T  T  T   T  T   T  T   T  T   T
--------------------------------------------------------------------------------
--------------------------------------------------------------------------------
--11h----13----(13)---(13)---(13)---(13)---(13)---11----(11)---(11)---(11)---(11
--------------------------------------------------------------------------------
--(9)---(11)---(11)---(11)---(11)---(11)---(11)---(9)----(9)----(9)----(9)----(9
--------------------------------------------------------------------------------


   T  T   T  T   T  T   T  T   T  T   T  T   T  T  T  T   T  T   T  T   T  T   T
--------------------------------------------------------------------------------
--------------------------------------------------------------------------------
--11h----13----(13)---(13)---(13)---(13)---(13)---11----(11)---(11)---(11)---(11
--------------------------------------------------------------------------------
--(9)---(11)---(11)---(11)---(11)---(11)---(11)---(9)----(9)----(9)----(9)----(9
--------------------------------------------------------------------------------


   S  S  S  S  S  S  E   S E  S E  S S    T  T S S S E  S S S E  S S S S S  
---------------------------------------|-----------------------------------|
---------------------------------------|-----------------------------------|
--11-13-13-13-13-13-11--11-9--9-8--8-8-|--8h-9-8-L---8------L----------8-8-|
---------------------------------------|---------9-9-9--9-7-L-6--6-6-6-----|
---------------------------------------|-----------------------------------|
---------------------------------------|-----------------------------------|


  S S E  E  S S S E  S E  S S    S S E  E  S E  E  S S S S  S  
------------------------------|-------------------------------|
------------------------------|-------------------------------|
--8-8-8--8--L----------8--8-8-|--8------8--L---------8-8-8-13-|
------------6-8-L-9--9-L------|----6-6--9--6-8--9--9-L--------|
------------------------------|-------------------------------|
------------------------------|-------------------------------|


   S  S  S  S  E   S  S S E  S E  S S    T  T S S S E  S S S E  S S S S S  
--------------------------------------|-----------------------------------|
--------------------------------------|-----------------------------------|
--13-13-13-13-13--13-11-L-9--9-8--8-8-|--8h-9-8-L---8------L----------8-8-|
--------------------------------------|---------9-9-9--9-7-L-6--6-6-6-----|
--------------------------------------|-----------------------------------|
--------------------------------------|-----------------------------------|


  S S E  E  S S S E  S E  S S    S S E  E  S E  S S S S S S S  
------------------------------|-------------------------------|
------------------------------|-------------------------------|
--8-8-8--8--L----------8--8-8-|--8------8--8-8--8-8-8-8-8-8-8-|
------------6-8-L-9--9-L------|----6-6--9--9-9--9-9-9-9-9-9-9-|
------------------------------|-------------------------------|
------------------------------|-------------------------------|


  S S S S E  E  S  S   S   S   S  S S S    S S S S S S S S S S S S S S E   
----------------L-----------------------|---------------------------------|
----------------L-----------------------|---------------------------------|
----------8--8--L-(9)-(9)-(9)-(9)-------|--8-8-8-8-8-8-8-8-6-6-6-6-6-8-6--|
--6-6-6-6-6--6--L--7---7---7---7--4-4-4-|--x-x-x-x-x-x-x-x-x-x-x-x-x-x-x--|
--6-6-6-6-6--6--L--7---7---7---7--4-4-4-|--6-6-6-6-6-6-6-6-4-4-4-4-4-6-4--|
--6-6-6-6-6--6--L--7---7---7---7--4-4-4-|---------------------------------|


  S S S S E  E  S  S   S   S   S  S S S    S S S S S S S S S S S S S S E   
----------------L-----------------------|---------------------------------|
----------------L-----------------------|---------------------------------|
----------8--8--L-(9)-(9)-(9)-(9)-------|--8-8-8-8-8-8-8-8-6-6-6-6-6-8-6--|
--6-6-6-6-6--6--L--7---7---7---7--4-4-4-|--x-x-x-x-x-x-x-x-x-x-x-x-x-x-x--|
--6-6-6-6-6--6--L--7---7---7---7--4-4-4-|--6-6-6-6-6-6-6-6-4-4-4-4-4-6-4--|
--6-6-6-6-6--6--L--7---7---7---7--4-4-4-|---------------------------------|


  S S S S E  E  S  S   S   S   S  S S S    S S S S S S S S S S S S S S E   
----------------L-----------------------|---------------------------------|
----------------L-----------------------|---------------------------------|
----------8--8--L-(9)-(9)-(9)-(9)-------|--6-8-8-8-8-8-8-8-6-6-6-6-6-8-6--|
--6-6-6-6-6--6--L--7---7---7---7--4-4-4-|--x-x-x-x-x-x-x-x-x-x-x-x-x-x-x--|
--6-6-6-6-6--6--L--7---7---7---7--4-4-4-|--6-6-6-6-6-6-6-6-4-4-4-4-4-6-4--|
--6-6-6-6-6--6--L--7---7---7---7--4-4-4-|---------------------------------|


  S S S S E  E  S  S   S   S   S  S S S    S S S S S S S S S S S S S S E   
----------------L-----------------------|---------------------------------|
----------------L-----------------------|---------------------------------|
----------8--8--L-(9)-(9)-(9)-(9)-------|--8-8-8-8-8-8-8-8-6-6-6-6-4-8-6--|
--6-6-6-6-6--6--L--7---7---7---7--4-4-4-|--x-x-x-x-x-x-x-x-x-x-x-x-x-x-x--|
--6-6-6-6-6--6--L--7---7---7---7--4-4-4-|--6-6-6-6-6-6-6-6-4-4-4-4-4-6-4--|
--6-6-6-6-6--2--L--7---7---7---7--4-4-4-|---------------------------------|


  (Left amp only)                                                       
  S               S S S Q    S S S S Q       S S S S Q    S S S S Q     
------------------------------------------|----------------------------|
------------------------------------------|----------------------------|
------------------------------------------|----------------------------|
--6---------------6-6-6--------6-6-6------|--6-6-6-6--------6-6-6------|
--6---------------6-6-6--------6-6-6------|--6-6-6-6--------6-6-6------|
--6---------------6-6-6--------6-6-6------|--6-6-6-6--------6-6-6------|


  S S S S Q    S S S S Q       S S S S Q    S S S S Q     
----------------------------|----------------------------|
----------------------------|----------------------------|
----------------------------|----------------------------|
--6-6-6-6--------6-6-6------|--6-6-6-6--------6-6-6------|
--6-6-6-6--------6-6-6------|--6-6-6-6--------6-6-6------|
--6-6-6-6--------6-6-6------|--6-6-6-6--------6-6-6------|


  S S S S S S S S S S S S S T T S S    S S S S S S S S S S S S S S S S  
------------------------------------|----------------------------------|
------------------------------------|----------------------------------|
------------------------------------|----------------------------------|
--6-6-6-6-x-x-x-x-x-6-6-6-x-x-x-x-x-|--6-6-6-6-x-x-x-x-x-6-6-6-x-x-x-x-|
--6-6-6-6-x-x-x-x-x-6-6-6-x-x-x-x-x-|--6-6-6-6-x-x-x-x-x-6-6-6-x-x-x-x-|
--6-6-6-6-x-x-x-x-x-6-6-6-x-x-x-x-x-|--6-6-6-6-x-x-x-x-x-6-6-6-x-x-x-x-|


                                                     (Both amps)                
  S S S S S S S S S S S S S S S S    S S S S S S S S S           S S S S S S S  
----------------------------------|--------------------------------------------|
----------------------------------|--------------------------------------------|
----------------------------------|------------------9-----------9-9-9---------|
--6-6-6-6-x-x-x-x-x-6-6-6-x-x-x-x-|--6-6-6-6-x-x-x-x-7-----------7-7-7-x-4-4-4-|
--6-6-6-6-x-x-x-x-x-6-6-6-x-x-x-x-|--6-6-6-6-x-x-x-x-7-----------7-7-7-x-4-4-4-|
--6-6-6-6-x-x-x-x-x-6-6-6-x-x-x-x-|--6-6-6-6-x-x-x-x-7-----------7-7-7-x-4-4-4-|


   w/ delay                                                                     
   T       T  T  T  T  T  T  T  T  T  T  T  T  T  T  T  T  T  T  T  T  T  T  T  
--------------------------------------------------------------------------------
--------------------------------------------------------------------------------
--------------------------------------------------------------------------------
---6---------(6)---(6)---(6)---(6)---(6)---(6)---(6)---(6)---(6)---(6)---(6)---(
--------------------------------------------------------------------------------
--(6)--------(6)---(6)---(6)---(6)---(6)---(6)---(6)---(6)---(6)---(6)---(6)---(


   T  T  T  T  T  T  T  T  T  T  T  T  T  T  T  T  T  T  T  T  T  T  T  T  T  T 
--------------------------------------------------------------------------------
--------------------------------------------------------------------------------
--------------------------------------------------------------------------------
--(6)---(6)---(6)---(6)---(6)---(6)---(6)---(6)----4----(4)---(4)----7----(7)---
--------------------------------------------------------------------------------
--(6)---(6)---(6)---(6)---(6)---(6)---(6)---(6)---(4)---(4)---(4)---(7)---(7)---


   T  T  T  T  T  T  T  T  T  T  T  T  T  T  T  T  T  T  T  T  T  T  T  T  T  T 
--------------------------------------------------------------------------------
--------------------------------------------------------------------------------
--------------------------------------------------------------------------------
---6----(6)---(6)---(6)---(6)---(6)---(6)---(6)---(6)---(6)---(6)---(6)---(6)---
--------------------------------------------------------------------------------
--(6)---(6)---(6)---(6)---(6)---(6)---(6)---(6)---(6)---(6)---(6)---(6)---(6)---


   ... continues to "Movement IV : RR"                                          
   T                                  T  T  T  T  T  T  T  T  T  T  T  T  T  T  
--------------------------------------------------------------------------------
--------------------------------------------------------------------------------
--------------------------------------------------------------------------------
--(6)-----------------------------------(6)---(6)---(6)---(6)---(6)---(6)---(6)-
--------------------------------------------------------------------------------
--(6)-----------------------------------(6)---(6)---(6)---(6)---(6)---(6)---(6)-




Duration Legend
---------------
W - whole
H - half
Q - quarter
E - 8th
S - 16th
T - 32nd
X - 64th
. - note dotted
|-n-|  - n-tuplets


Tablature Legend
----------------
L - tied note
x - dead note
g - grace note
(n) - ghost note
> - accentuded note
NH - natural harmonic
AH - artificial harmonic
TH - tapped harmonic
SH - semi harmonic
PH - pitch harmonic
h - hammer on
p - pull off
b - bend
br - bendRelease
pb - preBend
pbr - preBendRelease
brb - bendReleaseBend
\n/ - tremolo bar dip
\n - tremolo bar dive
-/n - tremolo bar Release up
/n\ - tremolo bar inverted dip
/n - tremolo bar return
-\n - tremolo bar Release down
S - shift slide
s - legato slide
/ -  slide into from below or out of upwards
\ -  slide into from above or out of downwards
~ - vibrato
W - wide vibrato
tr - trill
TP - tremolo picking
T - tapping
S - slap
P - pop
< - fade in
^ - brush up
v - brush down
Добавлено: 21.10.2013
Другие материалы по этой песне:

Страница создана 21.04.2012
http://primanota.ru/dredg/penguins-in-the-desert-chords.htm
Привет, Гость.
Предлагаем пройти революционный курс по гитаре.
Подарок от PrimaNota.Ru, забирай!