PrimaNota.ru - самый крупный в мире бесплатный архив песенных текстов, аккордов, табулатур и нот


Dredg - Pariah - текст песни, таба, видео

Регистрация Запомнить меня
Войти через:  Facebook Google Twitter Vk Yandex Mail.ru

Dredg - Pariah - текст песни, таба, видео

Печатать
Просмотров: 174
Title: Pariah
Artist: Dredg
Album: The Pariah, The Parrot, The Delusion
Tabbed by: kyuba

Tuning: Standard (E-A-D-G-B-E)

Here ya go, the first Pariah tab in the net :)


Intro: (played during the verse as well)

E--------------------------------------------------------|
B--------------------------------------------------------|
G--------------------------------------------------------|
D--19-19-19-21-21-21-19-19-18-18-18-18-18-18-18-18-18----|
A--------------------------------------------------------|
E--------------------------------------------------------|


E---------------------------------------------------------|
B---------------------------------------------------------|
G------------------------------------19-19-19-18-18-------|
D--19-19-19-21-21-21-19-19-18-18-18-----------------------|
A---------------------------------------------------------|
E---------------------------------------------------------|

Pre-verse riff:

E---------------------------------------|
B---------------------------------------|
G---------------------------------------|
D---------------------------x-x--x-x-x--|
A---------------------------x-x--x-x-x--|
E--2-2-2\-14-14-14/-5-5-5---x-x--x-x-x--|

E---------------------------------------|
B---------------------------------------|
G---------------------------------------|
D---------------------------------------|
A---------------------------------------|
E--2-2-2\-14-14-14/-5-5-5--7-7-7--9-9-9-|

Chorus: (just play these 4 chords)


E-5--2--------|
B-5--3--2-----|
G-7--4--2--1--|
D-7--4--4--2--|
A-5--2--4--2--|
E-------2--0--|


Chorus ending: (the last time you play the E chord, finish it like below)

E----------|
B----------|
G--1-------|
D--2-------|
A--2--3-4--|
E--0--x-x--|


Post-chorus riff:

E---------------------|
B---------------------|
G---------------------|
D--4-4-----4-4--------|
A---------------------|
E------2-2-----2-2----|

Ending riff: (the 'no more figting' part)

E-------------------------|
B-------------------------|
G-------------------------|
D-----4--4-4-----4-4------|
A-------------------------|
E-2-2--------2-2-----2-2--|


Outro: (same riff as intro)

E--------------------------------------------------------|
B--------------------------------------------------------|
G--------------------------------------------------------|
D--19-19-19-21-21-21-19-19-18-18-18-18-18-18-18-18-18----|
A--------------------------------------------------------|
E--------------------------------------------------------|


E---------------------------------------------------------|
B---------------------------------------------------------|
G------------------------------------19-19-19-18-18-------|
D--19-19-19-21-21-21-19-19-18-18-18-----------------------|
A---------------------------------------------------------|
E---------------------------------------------------------|


| ^  bend
| /  slide up
| \  slide down
| h  hammer-on
| p  pull-off
| ~  vibrato
| *  harmonic
| x  Mute note
Добавлено: 31.10.2013
Другие материалы по этой песне:
  • Аккорды и текст

Страница создана 31.10.2013
http://primanota.ru/dredg/pariah-chords.htm
Привет, Гость.
Предлагаем пройти революционный курс по гитаре.
Подарок от PrimaNota.Ru, забирай!