PrimaNota.ru - самый крупный в мире бесплатный архив песенных текстов, аккордов, табулатур и нот


Dredg - Of The Room - текст песни, таба, видео

Регистрация Запомнить меня
Войти через:  Facebook Google Twitter Vk Yandex Mail.ru

Dredg - Of The Room - текст песни, таба, видео

Печатать
Просмотров: 105
Авторы музыки: dredg
Авторы текста: Gavin Hayes
Intro-
e-------------------------|
b---8-8-8-8-8---5-5-5-5-5-|
g-------------------------|
d-------------------------|
a-8-----------3-----------|
E-------------------------|x3

e--------------------------|
b-/12-12-12-12-12-12-13-13-|
a--------12-12-12-12-12-12-|
d-----------12-12-12-12-12-|
g--------------------------|
E--------------------------|With distortion and reverb.
Main Riff-
e-----------------------------|
b-----10-----10-----10-----10-|
g-----------------------------|
d-7/10---7/10---7/10---7/10---|
a-0------0------0------0------|
E-----------------------------|x2

e-----5------5------5------5--|
b-----------------------------|
g-----------------------------|
d-10/5---10/5---10/5---10/5---|
a-0------0------0------0------|
E-----------------------------|x2

e-----------------------------|
b-----10-----10-----10-----10-|
g-----------------------------|
d-7/10---7/10---7/10---7/10---|
a-0------0------0------0------|
E-----------------------------|
Chorus-
e-0000-3333-0000-------|
b-5555-1111-5555-00x00-|
g-5555-2222-5555-22x22-|
d-7777-3333-7777-33x33-|
a-7777------7777-33x33-|
E-5555-1111-5555-11x11-|

e-0000-3333-0000-33-01-|
b-5555-1111-5555-00-00-|
g-5555-2222-5555-22-22-|
d-7777-3333-7777-33-33-|
a-7777------7777-33-33-|
E-5555-1111-5555-11-11-|
Main Riff-
e-----------------------------|
b-----10-----10-----10-----10-|
g-----------------------------|
d-7/10---7/10---7/10---7/10---|
a-0------0------0------0------|
E-----------------------------|x3

e-----5------5------5------5--|
b-----------------------------|
g-----------------------------|
d-10/5---10/5---10/5---10/5---|
a-0------0------0------0------|
E-----------------------------|

e--------------------------|
b-----8-----8-----8-----0~-|
g-----------------------0~-|
d--------------------------|
a-10/8--10/8--10/8--10/8---|
E--------------------------|
Chorus-
e-0000-3333-0000-------|
b-5555-1111-5555-00x00-|
g-5555-2222-5555-22x22-|
d-7777-3333-7777-33x33-|
a-7777------7777-33x33-|
E-5555-1111-5555-11x11-|

e-0000-3333-0000-33-----|
b-5555-1111-5555-00x00/-|
g-5555-2222-5555-22x22/-|
d-7777-3333-7777-33x33/-|
a-7777------7777-33x33/-|
E-5555-1111-5555-11x11/-|x2
Bridge-
e----------------555/15-15-----------------------------|
b-5555-5555-5555-555/15-15-5555-5555-5555--------------|
g-5555-5555-5555-555/15-15-5555-5555-5555-----------5~-|
d-5555-7777-5555-77--------5555-7777-5555-7^7xx7^7xx7~-|
a-3333-7777-3333-77--------3333-7777-3333-7^7xx7^7xx---|
E------5555------55-------------5555------5^5xx5^5xx---|
The power chord is only a 1/3 bend, and is done more than i tabbed out.
Main Riff-
e----------------------------------|
b-----10-----10-----10-----10(10~)-|
g----------------------------------|
d-7/10---7/10---7/10---7/10--------|
a-0------0------0------0-----------|
E----------------------------------|x2

e--------------------------|
b-----8-----8-----8------8-|
g--------------------------|
d--------------------------|
a-10/8--10/8--10/8--10/8---|
E--------------------------|
Break-
e-------------------------|
b---8-8-8-8-8---5-5-5-5-5-|
g-------------------------|
d-------------------------|
a-8-----------3-----------|
E-------------------------|x3

e--------------------------|
b-/12-12-12-12-12-12-13-13-|
a--------12-12-12-12-12-12-|
d-----------12-12-12-12-12-|
g--------------------------|
E--------------------------|
Chorus-
e-0000-3333-0000-------|
b-5555-1111-5555-00x00-|
g-5555-2222-5555-22x22-|
d-7777-3333-7777-33x33-|
a-7777------7777-33x33-|
E-5555-1111-5555-11x11-|

e-0000-3333-0000-33-----|
b-5555-1111-5555-00x00/-|
g-5555-2222-5555-22x22/-|
d-7777-3333-7777-33x33/-|
a-7777------7777-33x33/-|
E-5555-1111-5555-11x11/-|
Outro-
e-----------------------------|
b-----10-----10-----10-----10-|
g-----------------------------|
d-7/10---7/10---7/10---7/10---|
a-0------0------0------0------|
E-----------------------------|
Добавлено: 15.08.2013
Другие материалы по этой песне:

Страница создана 09.03.2012
http://primanota.ru/dredg/of-the-room-chords.htm
Привет, Гость.
Предлагаем пройти революционный курс по гитаре.
Подарок от PrimaNota.Ru, забирай!