PrimaNota.ru - самый крупный в мире бесплатный архив песенных текстов, аккордов, табулатур и нот


Dredg - Ode To The Sun - текст песни, таба, бас-таба, видео

Регистрация Запомнить меня
Войти через:  Facebook Google Twitter Vk Yandex Mail.ru

Dredg - Ode To The Sun - текст песни, таба, бас-таба, видео

Печатать
Просмотров: 142
Авторы: Chris DeGarmo, dredg

Tabbed by: Deniz
Email: deniz.celtek@hotmail.com

Well I found this song pretty hard to tab but I think its the best one 
out so far.

Tuning: DADGBE

e|----------------------------------------------------333-222----|
B|--6---6---6---6---6---6---------4---4---4---4---4--------------|
G|----5---5---5---5---5---5---------6---6---6---6---6*-----------|
D|---------------------------------------------------------------|
A|---------------------------------------------------------------|
D|---------------------------------------------------------------|
*=let ring
e|-----------------------------------------------------66666-----|
B|--6---6---6---6---6---6---------4---4---4---4---4--------------|
G|--—-5---5---5---5---5---5---------6---6---6---6---6*-----------|  
D|---------------------------------------------------------------|
A|---------------------------------------------------------------|
D|---------------------------------------------------------------|
*=let ring

Moderate speed picking for this bit
E|---------------------------------------------------------------|
B|---9----8------------------------------------------------------|
G|--10----8----3-------------------------------------------------|
D|-------------3-------------------------------------------------|  x2
A|---------------------------------------------------------------|
D|---------------------------------------------------------------|

Singing Starts

E|---------------------------------------------------------------|
B|---9----8----6-------------------------------------------------|
G|--10----8----6-------------------------------------------------|
D|---------------------------------------------------------------|  x4
A|---------------------------------------------------------------|
D|---------------------------------------------------------------|

Moderate picking again (Pre-chorus)

E|--8--11---8--11---8---13---------------------------------------|
B|--6---6---6---6---6---6----------------------------------------|
G|---------------------------------------------------------------|
D|---------------------------------------------------------------|
A|---------------------------------------------------------------|
D|---------------------------------------------------------------|
Chorus (Distorted)
E|---------------1-----------------------------------------------|
B|--6-----4------1-----4-----------------------------------------|
G|--5-----3------1-----3-----------------------------------------|
D|--3-----1------1-----1-----------------------------------------| 
A|--3-----1------1-----1-----------------------------------------|
D|--3-----1------------1-----------------------------------------|

Repeat “Singing Starts”
Then on the second time of the next chorus its:

E|---------------1-----------------------------------------------|
B|--6-----9------1-----4-----------------------------------------|
G|--5-----8------1-----3-----------------------------------------|
D|--3-----6------1-----1-----------------------------------------| 
A|--3-----6------1-----1-----------------------------------------|
D|--3-----6------------1-----------------------------------------|



Thats about all the parts you need to know, just fit them in their places :)
Добавлено: 02.11.2013
Другие материалы по этой песне:

Страница создана 08.03.2012
http://primanota.ru/dredg/ode-to-the-sun-chords.htm
Привет, Гость.
Предлагаем пройти революционный курс по гитаре.
Подарок от PrimaNota.Ru, забирай!