PrimaNota.ru - самый крупный в мире бесплатный архив песенных текстов, аккордов, табулатур и нот


Dredg - Hung Over On A Tuesday - текст песни, таба, видео

Регистрация Запомнить меня
Войти через:  Facebook Google Twitter Vk Yandex Mail.ru

Dredg - Hung Over On A Tuesday - текст песни, таба, видео

Печатать
Просмотров: 203
Авторы: dredg

Song: Hungover on a Tuesday
Artist: Dredg
Album: Catch Without Arms
As tabbed by Tim Dery

A note first - I know that this isn't 100% correct. The guy from Dredg is awesome, and 
does he play regular straight up chords/power chords. He's always doing weird stuff. I 
the guitar is tuned to D as well.

I dig this song, and since there isn't a tab for it, I pounded something out that goes 
with it.
Please correct this if you think you have it better.

Intro (fast)
e|--(0)--------------|
B|---8---------------|
G|---9---------------|
D|--10-x4--x4--------|
A|-------------------|
E|-------------------|

Verse Part

e|--(0)---(0)---------------(0)-|--(0)---(0)-------------------|
B|---8-----8-----13---13-----8--|---8-----8--------------------|
G|---9-----9-----------------9--|---9-----9---10---10----10----|
D|--10-----9-----15---14----10--|--10-----9---10---10----10----|
A|------------------------------|--------------8----7----------|
E|------------------------------|------------------------10----|

"Solo" Part

e|----------------10---8--|--------15------13-----12-----|
B|--10--------8-----------|-10----(17)----(15)---(13)----|
G|-------9----------------|------------------------------|
D|------------------------|------------------------------|
A|------------------------|------------------------------|
E|------------------------|------------------------------|

Chorus

e|---(0)--(0)---------------|-----(0)------|
B|----8----8----5---10---12-|------8-------|
G|----9----9----7-----------|------9-------|
D|---10---------7---10---12-|-----10-------|
A|--------10--------8----10-|--------------|
E|--------------------------|-x2-----------|

Verse Part

e|--(0)---(0)---------------(0)-|--(0)---(0)-------------------|
B|---8-----8-----13---13-----8--|---8-----8--------------------|
G|---9-----9-----------------9--|---9-----9---10---10----10----|
D|--10-----9-----15---14----10--|--10-----9---10---10----10----|
A|------------------------------|--------------8----7----------|
E|------------------------------|------------------------10----|

Verse Part

e|--(0)---(0)---------------(0)-|--(0)---(0)-------------------|
B|---8-----8-----13---13-----8--|---8-----8--------------------|
G|---9-----9-----------------9--|---9-----9---10---10----10----|
D|--10-----9-----15---14----10--|--10-----9---10---10----10----|
A|------------------------------|--------------8----7----------|
E|------------------------------|------------------------10----|

Chorus

e|---(0)--(0)---------------|-----(0)------|
B|----8----8----5---10---12-|------8-------|
G|----9----9----7-----------|------9-------|
D|---10---------7---10---12-|-----10-------|
A|--------10--------8----10-|--------------|
E|--------------------------|-x2-----------|

Bridge part

e|-----------------|--------------------|
B|-----------------|--------------------|
G|---12---10----9--|---10---9---10---5--|
D|---10---10---10--|----7---7----7---7--|
A|-----------------|--------------------|
E|-----------------|--------------------|

e|-----------------|---------------------|
B|-----------------|---------------------|
G|---12---10----9--|---10---9----7---12--|
D|---10---10---10--|----7---7------------|
A|-----------------|-------------8----8--|
E|-----------------|---------------------|

Breakdown General Idea (Piano)

e|---------------------------|
B|--5----8---5---------------|
G|---------------2----4---5--|
D|---------------------------|
A|---------------------------|
E|---------------------------|

"Solo" Part

e|----------------10---8--|--------15------13-----12-----|
B|--10--------8-----------|-10----(17)----(15)---(13)----|
G|-------9----------------|------------------------------|
D|------------------------|------------------------------|
A|------------------------|------------------------------|
E|------------------------|------------------------------|

Chorus

e|---(0)--(0)---------------|-----(0)------|
B|----8----8----5---10---12-|------8-------|
G|----9----9----7-----------|------9-------|
D|---10---------7---10---12-|-----10-------|
A|--------10--------8----10-|--------------|
E|--------------------------|-x4-----------|
Добавлено: 26.07.2013
Другие материалы по этой песне:
  • Аккорды и текст

Страница создана 24.03.2012
http://primanota.ru/dredg/hung-over-on-a-tuesday-chords.htm
Привет, Гость.
Предлагаем пройти революционный курс по гитаре.
Подарок от PrimaNota.Ru, забирай!