PrimaNota.ru - самый крупный в мире бесплатный архив песенных текстов, аккордов, табулатур и нот


Dredg - 90 Hour Sleep - таба, видео

Регистрация Запомнить меня
Войти через:  Facebook Google Twitter Vk Yandex Mail.ru

Dredg - 90 Hour Sleep - таба, видео

Печатать
Просмотров: 93
Уроки эстрадного вокала в Санкт-Петербурге
This is the way I have been playing this song, and it sounds perfect.


Effects- some reverb (keep it clean)
(0:12-1:08)
e-------------------------------------------------|
B-------------------------------------------------|
G-------9----------9-------------9-------------9--|
D------10---------10------------10------------10--|
A-0--0--0--0--0-0--0--0-10--10--10--10--10-10-10--|
E-------------------------------------------------|


e--------------------------------------------|
B--------------------------------------------|
G----------9----------9---------9---10--9----|
D---------10---------10---------9---9---9----|
A-10-8--8--8--8--8-8--8--8-7--7---7---7---7--|
E------------------------------------(0)-----|


(1:09-1:33)
e------------------------------------------------------------------------|
B------------------------------------------------------------------------|
G------------------------------------------13-13-13-13-13-14-14-14-16-16-|
D------------------------------------------------------------------------|
A-0---------0--2--2h3----3--5--7--7--12-11-11-11-11-11-11-12-12-12-14-14-|
E------------------------------------------------------------------------|

some slides around here ^^^^^^^^^^^^^^^^^

Best part (1:33-2:05)

e---------------------------------------------------|
B---------------------------------------------------|
G--9--9---9---9---9---9---9---12--12--12-9---9---9--|
D-10--10--10--10--10--10--10--10--10--10-10--10--10-|
A--0--0---0---0---0---0---0---0---0---0--0---0---0--|
E---------------------------------------------------|

e------------------------------------------|
B------------------------------------------|
G--9---9---9---9---9---9--10-10-10--9--9---|
D-10--10--10--10--10--10--10-10-10-10-10---|
A-10--10--10--10--10--10--10-10-10-10-10---|
E------------------------------------------|

e--------------------------------------------------------|
B----------------13-13-12-12--9-9-9-9-9-9-9-10-10-12-12--|
G--9--9--9--9--9--9-----------9-9-9-9-9-9-9--9--9--9--9--|
D-10-10-10-10-10-10-----------9-9-9-9-9-9-9--9--9--9--9--|
A--8--8--8--8--8--8-----------7-7-7-7-7-7-7--7--7--7--7--|
E--------------------------------------------------------|
listen for the picking on this entire section, its alternate-


end with

e-----
B-----
G--9--
D-10--
A--0--
E-----
Добавлено: 20.08.2013
Другие материалы по этой песне:
  • Аккорды и текст

Страница создана 20.08.2013
http://primanota.ru/dredg/90-hour-sleep-chords.htm
Привет, Гость.
Предлагаем пройти революционный курс по гитаре.
Подарок от PrimaNota.Ru, забирай!