PrimaNota.ru - самый крупный в мире бесплатный архив песенных текстов, аккордов, табулатур и нот


Dreamtale - Farewell - текст песни, таба, видео

Регистрация Запомнить меня
Войти через:  Facebook Google Twitter Vk Yandex Mail.ru

Dreamtale - Farewell - текст песни, таба, видео

Печатать
Просмотров: 325
played in Half step ( D,G,C,F,A,D )

(drum and guitars start at the same time )

Intro:

============================================================================

[Lead guitar and background guitar]( listen very carefully )

d--------------------------------------------------------|
A--------------------------------------------------------|
F--10-10---6---8----10-10---6---8----12-12-12---8---10---|
C--10-10---6---8----10-10---6---8----12-12-12---8---10---|
G--8--8----4---6----8--8----4---6----10-10-10---6---8----|
D--------------------------------------------------------|

d-----------------------------------]
A-----------------------------------]
F--6-6-6-6-6-6-6-6-5-5-5-5-5-5-5-5--]
C--6-6-6-6-6-6-6-6-5-5-5-5-5-5-5-5--] <<<<< Play it like this the first time
G--4-4-4-4-4-4-4-4-3-3-3-3-3-3-3-3--] <<<<< And then head to the next part
D-----------------------------------] <<<<< Below.

It is basically playing the samething, but only you have 2 extra notes to
trigger.

d---------------------------------------------------------------|
A---------------------------------------------------------------|
F--10-10-10---6---8----10-10-10---6---8----12-12-12---8---10----|
C--10-10-10---6---8----10-10-10---6---8----12-12-12---8---10----|
G--8--8--8----4---6----8--8--8----4---6----10-10-10---6---8-----|
D---------------------------------------------------------------|

d-----------------------------------]
A-----------------------------------]
F--6-6-6-6-6-6-6-6-5-5-5-5-5-5-5-5--]
C--6-6-6-6-6-6-6-6-5-5-5-5-5-5-5-5--]<<<<<< Now get ready for the background
G--4-4-4-4-4-4-4-4-3-3-3-3-3-3-3-3--]<<<<<< mini solo part for the lead.
D-----------------------------------]<<<<<< Background continue rythme.

===========================================================================
Verse: Lead guitar mini solo
---------------------------------------------------------------------------

( keep in a steady past )

d--13---15--16-15--18--16-15~-15/16-13---15--16-15--21--20-18~--|
A---------------------------------------------------------------|
F---------------------------------------------------------------|
C---------------------------------------------------------------|
G---------------------------------------------------------------|
D---------------------------------------------------------------|

d--16---18--19-16--21--20-18~--16--18--16-15---15------]
A-------------------------------------------------18~~-]
F------------------------------------------------------]
C------------------------------------------------------] >>>> next part
G------------------------------------------------------] >>>> below.
D------------------------------------------------------]

d------]
A------]
F------]>>>> Let it ring.
C--2---]
G--2---]
D--0---]

Listen to the drums carefully when you do this part below:

P.M.---   ------   ---------------   ---------------  --------    -----
d------------------------------------------------------------------------]
A------------------------------------------------------------------------]
F------------------------------------------------------------------------]
C-------2--------2-----------------2-----------------2---------2-------2-]
G-------2--------2-----------------2-----------------2---------2-------2-]
D-0-0-0-0--0-0-0-0---0-0-0---0-0-0-0---0-0-0-0---0-0-0---0-0-0-0---0-0-0-]

For a good 25 seconds its only keyboard and drums, and then the rest..well i just lost 
all the time so i apoligies for not having the chance to write it down, oh well, atleast 
got more then 1 minute covered up hehe.
Добавлено: 21.06.2012
Другие материалы по этой песне:
  • Аккорды и текст

Страница создана 13.04.2012
http://primanota.ru/dreamtale/farewell-chords.htm
Привет, Гость.
Предлагаем пройти революционный курс по гитаре.
Подарок от PrimaNota.Ru, забирай!