PrimaNota.ru - самый крупный в мире бесплатный архив песенных текстов, аккордов, табулатур и нот


Dreams From Gin - Typewriter - таба, видео

Регистрация Запомнить меня
Войти через:  Facebook Google Twitter Vk Yandex Mail.ru

Dreams From Gin - Typewriter - таба, видео

Печатать
Просмотров: 89
Track 1
     E  E  E  E  E  E  E  E     E  E  E  E  E  E  E  E   
E||--------------------------|--------------------------|
B||--------------------------|--------------------------|
G||--------------------------|--------------------------|
D||--------------------------|--------------------------|
A||-----------4--4-----------|-----------2--------------|
E||--5--5--x--------5--5--x--|--2--2--x-----------------|
 
 
  E  E  E  E  E  E  E  E     E  E  E  E  E  E  Q       E  E  E  E  E  E  E  E   
--------------------------|-------------------------|--------------------------|
--------------------------|-------------------------|--------------------------|
--------------------------|--------------------9----|-----------6--6-----------|
--------------------------|-------------------------|--7--7--x--6--6--7--7-----|
-----------4--4-----------|-----------2--------7----|--7--7--x--4--4--7--7-----|
--5--5--x--------5--5--x--|--2--2--x----------------|--5--5--x--------5--5--x--|
 
 
  E  E  E  E  E  E  E  E     E  E  E  E  E  E  E  E     E  E  E  E  E  E  Q     
--------------------------|--------------------------|-------------------------|
--------------------------|--------------------------|-------------------------|
-----------4-----9--7--0--|-----------6--6-----------|-----------4--------9----|
--4--4-----4-----9--7--0--|--7--7--x--6--6--7--7-----|--4--4-----4-------------|
--4--4-----2--------------|--7--7--x--4--4--7--7-----|--4--4-----2--------7----|
--2--2--x-----------------|--5--5--x--------5--5--x--|--2--2--x----------------|
 
 
  E  E  E  E  E  E  E  E     E  E  E  E  E  E  E  E   
--------------------------|--------------------------|
--------------------------|--------------------------|
-----------6--6-----------|-----------4-----9--7--0--|
--7--7--x--6--6--7--7-----|--4--4-----4-----9--7--0--|
--7--7--x--4--4--7--7-----|--4--4-----2--------------|
--5--5--x--------5--5--x--|--2--2--x-----------------|
 
 
  E  E  E  E  E  E  E  E     E  E  E  E  E  E  Q       E  E  E  E  E  E  E  E   
--------------------------|-------------------------|--------------------------|
--------------------------|-------------------------|--------------------------|
-----------6--6-----------|-----------4--------9----|--------------------------|
--7--7--x--6--6--7--7-----|--4--4-----4-------------|--7-----------------------|
--7--7--x--4--4--7--7-----|--4--4-----2--------7----|--7-----------------------|
--5--5--x--------5--5--x--|--2--2--x----------------|--5-----------------------|
 
 
  E  E  E  E  E  E  E  E     E  E  E  E  E  E  E  E   
--------------------------|--------------------------|
--------------------------|--------------------------|
--------------------------|--------------------------|
--7-----------------------|--7-----------7-----------|
--7-----------------------|--7-----------7-----------|
--5-----------------------|--5-----------5-----------|
 
 
  E  E  E  E  E  E  E  E     E  E  E  E  E  E  E  E   
--------------------------|--------------------------|
--------------------------|--------------------------|
--------------------------|--------------------------|
--7-----7-----7-----7-----|--------------------------|
--7-----7-----7-----7-----|-----------4--4-----------|
--5-----5-----5-----5-----|--5--5--x--------5--5--x--|
 
 
  E  E  E  E  E  E  E  E     E  E  E  E  E  E  E  E     E  E  E  E  E  E  Q     
--------------------------|--------------------------|-------------------------|
--------------------------|--------------------------|-------------------------|
--------------------------|--------------------------|--------------------9----|
--------------------------|--------------------------|-------------------------|
-----------2--------------|-----------4--4-----------|-----------2--------7----|
--2--2--x-----------------|--5--5--x--------5--5--x--|--2--2--x----------------|
 
 
  E  E  E  E  E  E  E  E     E  E  E  E  E  E  E  E   
--------------------------|--------------------------|
--------------------------|--------------------------|
-----------6--6-----------|-----------4-----9--7--0--|
--7--7--x--6--6--7--7-----|--4--4-----4-----9--7--0--|
--7--7--x--4--4--7--7-----|--4--4-----2--------------|
--5--5--x--------5--5--x--|--2--2--x-----------------|
 
 
  E  E  E  E  E  E  E  E     E  E  E  E  E  E  Q       E  E  E  E  E  E  E  E   
--------------------------|-------------------------|--------------------------|
--------------------------|-------------------------|--------------------------|
-----------6--6-----------|-----------4--------9----|-----------6--6-----------|
--7--7--x--6--6--7--7-----|--4--4-----4-------------|--7--7--x--6--6--7--7-----|
--7--7--x--4--4--7--7-----|--4--4-----2--------7----|--7--7--x--4--4--7--7-----|
--5--5--x--------5--5--x--|--2--2--x----------------|--5--5--x--------5--5--x--|
 
 
  E  E  E  E  E  E  E  E     E  E  E  E  E  E  E  E     E  E  E  E  E  E  Q     
--------------------------|--------------------------|-------------------------|
--------------------------|--------------------------|-------------------------|
-----------4-----9--7--0--|-----------6--6-----------|-----------4--------9----|
--4--4-----4-----9--7--0--|--7--7--x--6--6--7--7-----|--4--4-----4-------------|
--4--4-----2--------------|--7--7--x--4--4--7--7-----|--4--4-----2--------7----|
--2--2--x-----------------|--5--5--x--------5--5--x--|--2--2--x----------------|
 
 
  E  E  E  E  E  E  E  E     E  E  E  E  E  E  E  E   
--------------------------|--------------------------|
--------------------------|--------------------------|
--------------------------|--------------------------|
--7-----------------------|--7-----------------------|
--7-----------------------|--7-----------------------|
--5-----------------------|--5-----------------------|
 
 
  E  E  E  E  E  E  E  E     E  E  E  E  E  E  E  E   
--------------------------|--------------------------|
--------------------------|--------------------------|
--------------------------|--------------------------|
--7-----------7-----------|--7-----7-----7-----7-----|
--7-----------7-----------|--7-----7-----7-----7-----|
--5-----------5-----------|--5-----5-----5-----5-----|
 
 
  E  E  E  E  E  E  E  E     E  E  E  E  E  E  E  E   
--------------------------|--------------------------|
--------------------------|--------------------------|
--------------------------|--------------------------|
--7-----------------------|--7-----------------------|
--7-----------------------|--7-----------------------|
--5-----------------------|--5-----------------------|
 
 
  E  E  E  E  E  E  E  E     E  E  E  E  E  E  E  E   
--------------------------|--------------------------|
--------------------------|--------------------------|
--------------------------|--------------------------|
--7-----------7-----------|--7-----7-----7-----7-----|
--7-----------7-----------|--7-----7-----7-----7-----|
--5-----------5-----------|--5-----5-----5-----5-----|
 
 
  E  E  E  E  E  E  E  E     E  E  E  E  E  E  E  E   
--------------------------|--------------------------|
--------------------------|--------------------------|
-----------6--6-----------|-----------4-----9--7--0--|
--7--7--x--6--6--7--7-----|--4--4-----4-----9--7--0--|
--7--7--x--4--4--7--7-----|--4--4-----2--------------|
--5--5--x--------5--5--x--|--2--2--x-----------------|
 
 
  E  E  E  E  E  E  E  E     E  E  E  E  E  E  Q       E  E  E  E  E  E  E  E   
--------------------------|-------------------------|--------------------------|
--------------------------|-------------------------|--------------------------|
-----------6--6-----------|-----------4--------9----|-----------6--6-----------|
--7--7--x--6--6--7--7-----|--4--4-----4-------------|--7--7--x--6--6--7--7-----|
--7--7--x--4--4--7--7-----|--4--4-----2--------7----|--7--7--x--4--4--7--7-----|
--5--5--x--------5--5--x--|--2--2--x----------------|--5--5--x--------5--5--x--|
 
 
  E  E  E  E  E  E  E  E     E  E  E  E  E  E  E  E     E  E  E  E  E  E  Q     
--------------------------|--------------------------|-------------------------|
--------------------------|--------------------------|-------------------------|
-----------4-----9--7--0--|-----------6--6-----------|-----------4--------9----|
--4--4-----4-----9--7--0--|--7--7--x--6--6--7--7-----|--4--4-----4-------------|
--4--4-----2--------------|--7--7--x--4--4--7--7-----|--4--4-----2--------7----|
--2--2--x-----------------|--5--5--x--------5--5--x--|--2--2--x----------------|
 
 
  E  S S E  S S E  S S E  S S    E  S S E  S S E  E  E  E   
------------------------------|----------------------------|
------------------------------|----------------------------|
------------------------------|-------------------5--6-----|
--7------7------7------7------|--7------7------------------|
--7------7------7------7------|--7------7---------3--4-----|
--5--x-x-5--x-x-5--x-x-5--x-x-|--5--x-x-5--x-x-------------|
 
 
  E  S S E  S S E  E  E  E     E  S S E  S S E  E  E  E   
----------------------------|----------------------------|
----------------------------|----------------------------|
-------------------6--7-----|-------------------7--8-----|
--7------7------------------|--7------7------------------|
--7------7---------4--5-----|--7------7---------5--6-----|
--5--x-x-5--x-x-------------|--5--x-x-5--x-x-------------|
 
 
  E  S S E  S S E  Q    E     E  S S E  S S E  E  E  E   
---------------------------|----------------------------|
---------------------------|----------------------------|
-------------------9-------|-------------------5--6-----|
--7------7-----------------|--7------7------------------|
--7------7---------7-------|--7------7---------3--4-----|
--5--x-x-5--x-x------------|--5--x-x-5--x-x-------------|
 
 
  E  S S E  S S E  E  E  E     E  S S E  S S E  E  E  E   
----------------------------|----------------------------|
----------------------------|----------------------------|
-------------------6--7-----|-------------------7--8-----|
--7------7------------------|--7------7------------------|
--7------7---------4--5-----|--7------7---------5--6-----|
--5--x-x-5--x-x-------------|--5--x-x-5--x-x-------------|
 
 
  E  S S E  S S E  Q    E     Q    Q    Q    Q       E  E  E  E  E  E  E  E   
---------------------------|----------------------|--------------------------|
---------------------------|----------------------|--------------------------|
-------------------9-------|----------------------|--------------------------|
--7------7-----------------|----------------------|--7-----------------------|
--7------7---------7-------|----------------------|--7-----------------------|
--5--x-x-5--x-x------------|----------------------|--5-----------------------|
 
 
  E  E  E  E  E  E  E  E     E  E  E  E  E  E  E  E   
--------------------------|--------------------------|
--------------------------|--------------------------|
--------------------------|--------------------------|
--7-----------------------|--7-----------7-----------|
--7-----------------------|--7-----------7-----------|
--5-----------------------|--5-----------5-----------|
 
 
  E  E  E  E  E  E  E  E     E  E  E  E  E  E  E  E   
--------------------------|--------------------------|
--------------------------|--------------------------|
--------------------------|--------------------------|
--7-----7-----7-----7-----|--7--7--7--7--7--7--7--7--|
--7-----7-----7-----7-----|--7--7--7--7--7--7--7--7--|
--5-----5-----5-----5-----|--5--5--5--5--5--5--5--5--|
 
 
  E  E  E  E  E  E  E  E     E  E  E  E  E  E  E  E   
--------------------------|--------------------------|
--------------------------|--------------------------|
--------------------------|--------------------------|
--6--6--6--6--6--6--6--6--|--7--7--7--7--7--7--7--7--|
--4--4--4--4--4--4--4--4--|--7--7--7--7--7--7--7--7--|
--------------------------|--5--5--5--5--5--5--5--5--|
 
 
  E  E  E  E  E  E  E  E    
--------------------------||
--------------------------||
--------------------------||
--7-----7-----7-----7-----||
--7-----7-----7-----7-----||
--5-----5-----5-----5-----||
 
 
 
 
Duration Legend
---------------
W - whole
H - half
Q - quarter
E - 8th
S - 16th
T - 32nd
X - 64th
. - note dotted
|-n-|  - n-tuplets
 
 
Tablature Legend
----------------
L - tied note
x - dead note
g - grace note
(n) - ghost note
> - accentuded note
NH - natural harmonic
AH - artificial harmonic
TH - tapped harmonic
SH - semi harmonic
PH - pitch harmonic
h - hammer on
p - pull off
b - bend
br - bendRelease
pb - preBend
pbr - preBendRelease
brb - bendReleaseBend
\n/ - tremolo bar dip
\n - tremolo bar dive
-/n - tremolo bar Release up
/n\ - tremolo bar inverted dip
/n - tremolo bar return
-\n - tremolo bar Release down
S - shift slide
s - legato slide
/ -  slide into from below or out of upwards
\ -  slide into from above or out of downwards
~ - vibrato
W - wide vibrato
tr - tril'
TP - tremolo picking
T - tapping
S - slap
P - pop
< - fade in
^ - brush up
v - brush down
Добавлено: 22.06.2012
Другие материалы по этой песне:

Страница создана 22.06.2012
http://primanota.ru/dreams-from-gin/typewriter-chords.htm
Привет, Гость.
Предлагаем пройти революционный курс по гитаре.
Подарок от PrimaNota.Ru, забирай!