PrimaNota.ru - самый крупный в мире бесплатный архив песенных текстов, аккордов, табулатур и нот


Dreams From Gin - Stoic - таба, видео

Регистрация Запомнить меня
Войти через:  Facebook Google Twitter Vk Yandex Mail.ru

Dreams From Gin - Stoic - таба, видео

Печатать
Просмотров: 107
Dreams From Gin

Stoic

Intro -


E---------------------------------------------|
B---------------------------------------------|
G-----3-1/3-----3/1------3--3-3-3-3-3-3-3-----|
D-1-1-------3-3-------------1-1-1-1-1-1-1-----|
A----------------------3-3----3-3-3-3-3-3-3---|
E---------------------------------------------|

E---------------------------------------------|
B---------------------------------------------|
G-----3-1/3-----3/1------3--0-0-0-0-0-0-0-----|
D-1-1-------3-3-------------1-1-1-1-1-1-1-----|
A----------------------3-3----3-3-3-3-3-3-3---|
E---------------------------------------------|

Repeat x 2



Verse –


E---------------------------------------------------------------------|
B---------------------------------------------------------------------|
G---------------------------------------------------------------------|
D--5-5-5-5-x-x-6-6-6-6-x-x-1-1-1-1-1-1-1-x-3--------------------------|
A--6-6-6-6-x-x-8-8-8-8-x-x-1-1-1-1-1-1-1-x-3--------------------------|
E--6-6-6-6-x-x-8-8-8-8-x-x-3-3-3-3-3-3-3-x-5--------------------------|

Repeat X 4

Chorus –

E----3---3--1--1-----------------------------------------|
B--4--4---3--3--1-1---1/4-3-1-3--------------------------|
G----------------------3-0-------------------------------|
D--------------------------------------------------------|
A--------------------------------------------------------|
E--------------------------------------------------------|

Chorus –

E----3---3--1--1------------------------------|
B--4--4---3--3--1-1---1-----------------------|
G----------------------3-0--------------------|
D---------------------------------------------|
A---------------------------------------------|
E---------------------------------------------|

Repeat x2


Then just repeat until the Bridge which is

E-----3---3-----------------------------------------|
B---4--4------4----4-----------------4--------------|
G-----------5----5------5----5----5---5-------------|
D----------------------6----6----6------------------|
A---------------------------------------------------|
E---------------------------------------------------|

Play times 3 then accentuate this chord –

E---3------------------------------------------|
B---4------------------------------------------|
G---5------------------------------------------|
D---6------------------------------------------|
A----------------------------------------------|
E----------------------------------------------|


Repeat Verse.  That's it.  Except the “delayed bass line” is played (with a bass 
or detuned guitar) –



D# D# D# D# D# D# D# D#, A# A#, G, A, G G G G G G G G, A

Or




E---------------------------------------------|
B---------------------------------------------|
G---------------------------------------------|
E---------------------------------------------|
G----------------3-3--0-1-0-0-0-0-0-0-0-1-----|
D#--0-0-0-0-0---------------------------------|
Добавлено: 23.05.2012
Вам также может быть интересно:
Другие материалы по этой песне:
  • Аккорды и текст

Страница создана 23.05.2012
http://primanota.ru/dreams-from-gin/stoic-chords.htm
Привет, Гость.
Предлагаем пройти революционный курс по гитаре.
Подарок от PrimaNota.Ru, забирай!