PrimaNota.ru - самый крупный в мире бесплатный архив песенных текстов, аккордов, табулатур и нот


Dreams From Gin - Stereo Fire - таба, видео

Регистрация Запомнить меня
Войти через:  Facebook Google Twitter Vk Yandex Mail.ru

Dreams From Gin - Stereo Fire - таба, видео

Печатать
Просмотров: 84
Guitar -



     Q    Q    Q    Q       Q    Q    Q    Q       Q    Q    Q    Q     
E||----------------------|----------------------|----------------------|
B||----------------------|----------------------|----------------------|
G||------------8---------|------------8---------|------------7---------|
D||-------7--------------|-------7--------------|-------5--------------|
A||----------------------|--8--------------8----|--7--------------7----|
E||--8--------------8----|----------------------|----------------------|
 
 
  Q    Q    Q    Q       Q    Q    Q    Q       Q    Q    Q    Q     
----------------------|----------------------|----------------------|
----------------------|----------------------|----------------------|
----------------------|------------8---------|------------8---------|
----------------------|-------7--------------|-------7--------------|
--7----7----5----5----|----------------------|--8--------------8----|
----------------------|--8--------------8----|----------------------|
 
 
  Q    Q    Q    Q       Q    Q    Q    Q       Q    Q    Q    Q     
----------------------|----------------------|----------------------|
----------------------|----------------------|----------------------|
------------7---------|----------------------|------------8---------|
-------5--------------|----------------------|-------7--------------|
--7--------------7----|--7----7--------------|----------------------|
----------------------|------------5----7----|--8--------------8----|
 
 
  Q    Q    Q    Q       Q    Q    Q    Q       Q    Q    Q    Q     
----------------------|----------------------|----------------------|
----------------------|----------------------|----------------------|
------------8---------|------------7---------|----------------------|
-------7--------------|-------5--------------|----------------------|
--8--------------8----|--7--------------7----|--7----7----5----5----|
----------------------|----------------------|----------------------|
 
 
  Q    Q    Q    Q       Q    Q    Q    Q       Q    Q    Q    Q     
----------------------|----------------------|----------------------|
----------------------|----------------------|----------------------|
------------8---------|------------8---------|------------7---------|
-------7--------------|-------7--------------|-------5--------------|
----------------------|--8--------------8----|--7--------------7----|
--8--------------8----|----------------------|----------------------|
 
 
  Q    Q    Q    Q       Q    Q    Q    Q       Q    Q    Q    Q     
----------------------|----------------------|----------------------|
----------------------|----------------------|----------------------|
----------------------|------------8---------|------------8---------|
----------------------|-------7--------------|-------7--------------|
--7----7--------------|----------------------|--8--------------8----|
------------5----7----|--8--------------8----|----------------------|
 
 
  Q    Q    Q    Q       Q    Q    Q    Q       Q    Q    Q    Q     
----------------------|----------------------|----------------------|
----------------------|----------------------|----------------------|
------------7---------|----------------------|------------8---------|
-------5--------------|----------------------|-------7--------------|
--7--------------7----|--7----7----5----5----|----------------------|
----------------------|----------------------|--8--------------8----|
 
 
  Q    Q    Q    Q       Q    Q    Q    Q       Q    Q    Q    Q     
----------------------|----------------------|----------------------|
----------------------|----------------------|----------------------|
------------8---------|------------7---------|----------------------|
-------7--------------|-------5--------------|----------------------|
--8--------------8----|--7--------------7----|--7----7--------------|
----------------------|----------------------|------------5----7----|
 
 
  W                   W                   W                 
-------------------|-------------------|-------------------|
-------------------|-------------------|-------------------|
-------------------|-------------------|-------------------|
-------------------|-------------------|-------------------|
-------------------|--8----------------|-------------------|
--8----------------|-------------------|--5----------------|
 
 
  Q    Q    Q    Q        Q     Q     Q     Q        Q     Q     Q     Q     
----------------------|--------------------------|--------------------------|
----------------------|--------------------------|--------------------------|
----------------------|--------------------------|--10----10----10----10----|
----------------------|--10----10----10----10----|--10----10----10----10----|
--8----8----8----8----|--10----10----10----10----|---8-----8-----8-----8----|
--8----8----8----8----|---8-----8-----8-----8----|---8-----8-----8-----8----|
 
 
  Q    Q    Q    Q       Q      Q     Q     Q       Q    Q    Q    Q     
----------------------|--------------------------|----------------------|
----------------------|--------------------------|----------------------|
----------------------|--7s----10----10----10----|----------------------|
--7----7----7----7----|--------------------------|----------------------|
--7----7----7----7----|--5s-----8-----8-----8----|--8----8----8----8----|
--5----5----5----5----|--------------------------|--8----8----8----8----|
 
 
   Q     Q     Q     Q        Q     Q     Q     Q       Q    Q    Q    Q     
--------------------------|--------------------------|----------------------|
--------------------------|--------------------------|----------------------|
--------------------------|--10----10----10----10----|----------------------|
--10----10----10----10----|--10----10----10----10----|--7----7----7----7----|
--10----10----10----10----|---8-----8-----8-----8----|--7----7----7----7----|
---8-----8-----8-----8----|---8-----8-----8-----8----|--5----5----5----5----|
 
 
  Q      Q     Q     Q       Q    Q    Q    Q        Q     Q     Q     Q     
--------------------------|----------------------|--------------------------|
--------------------------|----------------------|--------------------------|
--7s----10----10----10----|----------------------|--------------------------|
--------------------------|----------------------|--10----10----10----10----|
--5s-----8-----8-----8----|--8----8----8----8----|--10----10----10----10----|
--------------------------|--8----8----8----8----|---8-----8-----8-----8----|
 
 
   Q     Q     Q     Q       Q    Q    Q    Q       Q      Q     Q     Q     
--------------------------|----------------------|--------------------------|
--------------------------|----------------------|--------------------------|
--10----10----10----10----|----------------------|--7s----10----10----10----|
--10----10----10----10----|--7----7----7----7----|--------------------------|
---8-----8-----8-----8----|--7----7----7----7----|--5s-----8-----8-----8----|
---8-----8-----8-----8----|--5----5----5----5----|--------------------------|
 
 
  Q    Q    Q    Q        Q     Q     Q     Q        Q     Q     Q     Q     
----------------------|--------------------------|--------------------------|
----------------------|--------------------------|--------------------------|
----------------------|--------------------------|--10----10----10----10----|
----------------------|--10----10----10----10----|--10----10----10----10----|
--8----8----8----8----|--10----10----10----10----|---8-----8-----8-----8----|
--8----8----8----8----|---8-----8-----8-----8----|---8-----8-----8-----8----|
 
 
  Q    Q    Q    Q       Q      H.              Q    Q    Q    Q     
----------------------|----------------------|----------------------|
----------------------|----------------------|----------------------|
----------------------|--7s----10------------|------------8---------|
--7----7----7----7----|----------------------|-------7--------------|
--7----7----7----7----|--5s-----8------------|----------------------|
--5----5----5----5----|----------------------|--8--------------8----|
 
 
  Q    Q    Q    Q       Q    Q    Q    Q       Q    Q    Q    Q     
----------------------|----------------------|----------------------|
----------------------|----------------------|----------------------|
------------8---------|------------7---------|----------------------|
-------7--------------|-------5--------------|----------------------|
--8--------------8----|--7--------------7----|--7----7----5----5----|
----------------------|----------------------|----------------------|
 
 
  Q    Q    Q    Q       Q    Q    Q    Q       Q    Q    Q    Q     
----------------------|----------------------|----------------------|
----------------------|----------------------|----------------------|
------------8---------|------------8---------|------------7---------|
-------7--------------|-------7--------------|-------5--------------|
----------------------|--8--------------8----|--7--------------7----|
--8--------------8----|----------------------|----------------------|
 
 
  Q    Q    Q    Q       Q    Q    Q    Q       Q    Q    Q    Q     
----------------------|----------------------|----------------------|
----------------------|----------------------|----------------------|
----------------------|------------8---------|------------8---------|
----------------------|-------7--------------|-------7--------------|
--7----7--------------|----------------------|--8--------------8----|
------------5----7----|--8--------------8----|----------------------|
 
 
  Q    Q    Q    Q       Q    Q    Q    Q       Q    Q    Q    Q     
----------------------|----------------------|----------------------|
----------------------|----------------------|----------------------|
------------7---------|----------------------|------------8---------|
-------5--------------|----------------------|-------7--------------|
--7--------------7----|--7----7----5----5----|----------------------|
----------------------|----------------------|--8--------------8----|
 
 
  Q    Q    Q    Q       Q    Q    Q    Q       Q    Q    Q    Q     
----------------------|----------------------|----------------------|
----------------------|----------------------|----------------------|
------------8---------|------------7---------|----------------------|
-------7--------------|-------5--------------|----------------------|
--8--------------8----|--7--------------7----|--7----7--------------|
----------------------|----------------------|------------5----7----|
 
 
  Q    Q    Q    Q       Q    Q    Q    Q       Q    Q    Q    Q     
----------------------|----------------------|----------------------|
----------------------|----------------------|----------------------|
------------8---------|------------8---------|------------7---------|
-------7--------------|-------7--------------|-------5--------------|
----------------------|--8--------------8----|--7--------------7----|
--8--------------8----|----------------------|----------------------|
 
 
  Q    Q    Q    Q       Q    Q    Q    Q       Q    Q    Q    Q     
----------------------|----------------------|----------------------|
----------------------|----------------------|----------------------|
----------------------|------------8---------|------------8---------|
----------------------|-------7--------------|-------7--------------|
--7----7----5----5----|----------------------|--8--------------8----|
----------------------|--8--------------8----|----------------------|
 
 
  Q    Q    Q    Q       Q    Q    Q    Q       W                 
----------------------|----------------------|-------------------|
----------------------|----------------------|-------------------|
------------7---------|----------------------|-------------------|
-------5--------------|----------------------|-------------------|
--7--------------7----|--7----7--------------|-------------------|
----------------------|------------5----7----|--8----------------|
 
 
  W                   W                   Q    Q    Q    Q     
-------------------|-------------------|----------------------|
-------------------|-------------------|----------------------|
-------------------|-------------------|----------------------|
-------------------|-------------------|----------------------|
--8----------------|-------------------|--8----8----8----8----|
-------------------|--5----------------|--8----8----8----8----|
 
 
   Q     Q     Q     Q        Q     Q     Q     Q       Q    Q    Q    Q     
--------------------------|--------------------------|----------------------|
--------------------------|--------------------------|----------------------|
--------------------------|--10----10----10----10----|----------------------|
--10----10----10----10----|--10----10----10----10----|--7----7----7----7----|
--10----10----10----10----|---8-----8-----8-----8----|--7----7----7----7----|
---8-----8-----8-----8----|---8-----8-----8-----8----|--5----5----5----5----|
 
 
  Q      Q     Q     Q       Q    Q    Q    Q        Q     Q     Q     Q     
--------------------------|----------------------|--------------------------|
--------------------------|----------------------|--------------------------|
--7s----10----10----10----|----------------------|--------------------------|
--------------------------|----------------------|--10----10----10----10----|
--5s-----8-----8-----8----|--8----8----8----8----|--10----10----10----10----|
--------------------------|--8----8----8----8----|---8-----8-----8-----8----|
 
 
   Q     Q     Q     Q       Q    Q    Q    Q       Q      Q     Q     Q     
--------------------------|----------------------|--------------------------|
--------------------------|----------------------|--------------------------|
--10----10----10----10----|----------------------|--7s----10----10----10----|
--10----10----10----10----|--7----7----7----7----|--------------------------|
---8-----8-----8-----8----|--7----7----7----7----|--5s-----8-----8-----8----|
---8-----8-----8-----8----|--5----5----5----5----|--------------------------|
 
 
  Q    Q    Q    Q        Q     Q     Q     Q        Q     Q     Q     Q     
----------------------|--------------------------|--------------------------|
----------------------|--------------------------|--------------------------|
----------------------|--------------------------|--10----10----10----10----|
----------------------|--10----10----10----10----|--10----10----10----10----|
--8----8----8----8----|--10----10----10----10----|---8-----8-----8-----8----|
--8----8----8----8----|---8-----8-----8-----8----|---8-----8-----8-----8----|
 
 
  Q    Q    Q    Q       Q      Q     Q     Q       Q    Q    Q    Q     
----------------------|--------------------------|----------------------|
----------------------|--------------------------|----------------------|
----------------------|--7s----10----10----10----|----------------------|
--7----7----7----7----|--------------------------|----------------------|
--7----7----7----7----|--5s-----8-----8-----8----|--8----8----8----8----|
--5----5----5----5----|--------------------------|--8----8----8----8----|
 
 
   Q     Q     Q     Q        Q     Q     Q     Q       Q    Q    Q    Q     
--------------------------|--------------------------|----------------------|
--------------------------|--------------------------|----------------------|
--------------------------|--10----10----10----10----|----------------------|
--10----10----10----10----|--10----10----10----10----|--7----7----7----7----|
--10----10----10----10----|---8-----8-----8-----8----|--7----7----7----7----|
---8-----8-----8-----8----|---8-----8-----8-----8----|--5----5----5----5----|
 
 
  Q      Q    Q      Q        E   E   E   E   E   E   E   E   
--------------------------|----------------------------------|
--------------------------|----------------------------------|
--7s----10----7s----10----|----------------------------------|
--------------------------|--10--10--10--10--10--10--10--10--|
--5s-----8----5s-----8----|--10--10--10--10--10--10--10--10--|
--------------------------|---8---8---8---8---8---8---8---8--|
 
 
   E   E   E   E   E   E   E   E     E  E  E  E  E  E  E  E   
----------------------------------|--------------------------|
----------------------------------|--------------------------|
--10--10--10--10--10--10--10--10--|--------------------------|
--10--10--10--10--10--10--10--10--|--7--7--7--7--7--7--7--7--|
---8---8---8---8---8---8---8---8--|--7--7--7--7--7--7--7--7--|
---8---8---8---8---8---8---8---8--|--5--5--5--5--5--5--5--5--|
 
 
  E    E   E   E  E    E   E   E      E   E   E   E   E   E   E   E   
----------------------------------|----------------------------------|
----------------------------------|----------------------------------|
--7s--10--10--10--7s--10--10--10--|----------------------------------|
----------------------------------|--10--10--10--10--10--10--10--10--|
--5s---8---8---8--5s---8---8---8--|--10--10--10--10--10--10--10--10--|
----------------------------------|---8---8---8---8---8---8---8---8--|
 
 
   E   E   E   E   E   E   E   E     E  E  E  E  E  E  E  E   
----------------------------------|--------------------------|
----------------------------------|--------------------------|
--10--10--10--10--10--10--10--10--|--------------------------|
--10--10--10--10--10--10--10--10--|--7--7--7--7--7--7--7--7--|
---8---8---8---8---8---8---8---8--|--7--7--7--7--7--7--7--7--|
---8---8---8---8---8---8---8---8--|--5--5--5--5--5--5--5--5--|
 
 
  E    E   E   E  E    E   E   E      E   E   E   E   E   E   E   E   
----------------------------------|----------------------------------|
----------------------------------|----------------------------------|
--7s--10--10--10--7s--10--10--10--|----------------------------------|
----------------------------------|--10--10--10--10--10--10--10--10--|
--5s---8---8---8--5s---8---8---8--|--10--10--10--10--10--10--10--10--|
----------------------------------|---8---8---8---8---8---8---8---8--|
 
 
   E   E   E   E   E   E   E   E     E  E  E  E  E  E  E  E   
----------------------------------|--------------------------|
----------------------------------|--------------------------|
--10--10--10--10--10--10--10--10--|--------------------------|
--10--10--10--10--10--10--10--10--|--7--7--7--7--7--7--7--7--|
---8---8---8---8---8---8---8---8--|--7--7--7--7--7--7--7--7--|
---8---8---8---8---8---8---8---8--|--5--5--5--5--5--5--5--5--|
 
 
  E    E   E   E  E    E   E   E      E   E   E   E   E   E   E   E   
----------------------------------|----------------------------------|
----------------------------------|----------------------------------|
--7s--10--10--10--7s--10--10--10--|----------------------------------|
----------------------------------|--10--10--10--10--10--10--10--10--|
--5s---8---8---8--5s---8---8---8--|--10--10--10--10--10--10--10--10--|
----------------------------------|---8---8---8---8---8---8---8---8--|
 
 
   E   E   E   E   E   E   E   E     E  E  E  E  E  E  E  E   
----------------------------------|--------------------------|
----------------------------------|--------------------------|
--10--10--10--10--10--10--10--10--|--------------------------|
--10--10--10--10--10--10--10--10--|--7--7--7--7--7--7--7--7--|
---8---8---8---8---8---8---8---8--|--7--7--7--7--7--7--7--7--|
---8---8---8---8---8---8---8---8--|--5--5--5--5--5--5--5--5--|
 
 
  E    E   E   E  E    E   E   E      E   E   E   E  E  E  E  E   
----------------------------------|------------------------------|
----------------------------------|------------------------------|
--7s--10--10--10--7s--10--10--10--|------------------------------|
----------------------------------|--10--10--10--10--------------|
--5s---8---8---8--5s---8---8---8--|------------------------------|
----------------------------------|------------------8--8--8--8--|
 
 
  E  E  E  E  E  E  E  E     E  E  E  E  E  E  E  E   
--------------------------|--------------------------|
--------------------------|--------------------------|
--------------------------|--------------------------|
--------------3--3--3--3--|--7--7--7--7--------------|
--------------------------|--------------------------|
--1--1--1--1--------------|--------------5--5--5--5--|
 
 
   E   E   E   E   E   E   E   E      E   E   E   E  E  E  E  E   
----------------------------------|------------------------------|
----------------------------------|------------------------------|
----------------------------------|------------------------------|
--15--15--15--15--15--15--15--15--|--10--10--10--10--------------|
----------------------------------|------------------------------|
--13--13--13--13--13--13--13--13--|------------------8--8--8--8--|
 
 
  E  E  E  E  E  E  E  E     E  E  E  E  E  E  E  E   
--------------------------|--------------------------|
--------------------------|--------------------------|
--------------------------|--------------------------|
--------------3--3--3--3--|--7--7--7--7--------------|
--------------------------|--------------------------|
--1--1--1--1--------------|--------------5--5--5--5--|
 
 
   E   E   E   E   E   E   E   E      E   E   E   E  E  E  E  E   
----------------------------------|------------------------------|
----------------------------------|------------------------------|
----------------------------------|------------------------------|
--15--15--15--15--15--15--15--15--|--10--10--10--10--------------|
----------------------------------|------------------------------|
--13--13--13--13--13--13--13--13--|------------------8--8--8--8--|
 
 
  E  E  E  E  E  E  E  E     E  E  E  E  E  E  E  E   
--------------------------|--------------------------|
--------------------------|--------------------------|
--------------------------|--------------------------|
--------------3--3--3--3--|--7--7--7--7--------------|
--------------------------|--------------------------|
--1--1--1--1--------------|--------------5--5--5--5--|
 
 
   E   E   E   E   E   E   E   E      E   E   E   E  E  E  E  E   
----------------------------------|------------------------------|
----------------------------------|------------------------------|
----------------------------------|------------------------------|
--15--15--15--15--15--15--15--15--|--10--10--10--10--------------|
----------------------------------|------------------------------|
--13--13--13--13--13--13--13--13--|------------------8--8--8--8--|
 
 
   E   E   E   E  E  E  E  E      E   E   E   E  E  E  E  E   
------------------------------|------------------------------|
------------------------------|------------------------------|
------------------------------|------------------------------|
--10--10--10--10--------------|--10--10--10--10--------------|
------------------------------|------------------------------|
------------------8--8--8--8--|------------------8--8--8--8--|
 
 
   E   E    E    E    E   E  E  E      E   E   E   E   E   E   E   E   
-----------------------------------|----------------------------------|
-----------------------------------|----------------------------------|
-----------------------------------|----------------------------------|
--10--10b--10b--10b--10b-----------|--10--10--10--10--10--10--10--10--|
-----------------------------------|--10--10--10--10--10--10--10--10--|
-----------------------------------|---8---8---8---8---8---8---8---8--|
 
 
   E   E   E   E   E   E   E   E     E  E  E  E  E  E  E  E   
----------------------------------|--------------------------|
----------------------------------|--------------------------|
--10--10--10--10--10--10--10--10--|--------------------------|
--10--10--10--10--10--10--10--10--|--7--7--7--7--7--7--7--7--|
---8---8---8---8---8---8---8---8--|--7--7--7--7--7--7--7--7--|
---8---8---8---8---8---8---8---8--|--5--5--5--5--5--5--5--5--|
 
 
  E    E   E   E  E    E   E   E      E   E   E   E   E   E   E   E   
----------------------------------|----------------------------------|
----------------------------------|----------------------------------|
--7s--10--10--10--7s--10--10--10--|----------------------------------|
----------------------------------|--10--10--10--10--10--10--10--10--|
--5s---8---8---8--5s---8---8---8--|--10--10--10--10--10--10--10--10--|
----------------------------------|---8---8---8---8---8---8---8---8--|
 
 
   E   E   E   E   E   E   E   E     E  E  E  E  E  E  E  E   
----------------------------------|--------------------------|
----------------------------------|--------------------------|
--10--10--10--10--10--10--10--10--|--------------------------|
--10--10--10--10--10--10--10--10--|--7--7--7--7--7--7--7--7--|
---8---8---8---8---8---8---8---8--|--7--7--7--7--7--7--7--7--|
---8---8---8---8---8---8---8---8--|--5--5--5--5--5--5--5--5--|
 
 
  E    E   E   E  E    E   E   E      E   E   E   E   E   E   E   E   
----------------------------------|----------------------------------|
----------------------------------|----------------------------------|
--7s--10--10--10--7s--10--10--10--|----------------------------------|
----------------------------------|--10--10--10--10--10--10--10--10--|
--5s---8---8---8--5s---8---8---8--|--10--10--10--10--10--10--10--10--|
----------------------------------|---8---8---8---8---8---8---8---8--|
 
 
   E   E   E   E   E   E   E   E     E  E  E  E  E  E  E  E   
----------------------------------|--------------------------|
----------------------------------|--------------------------|
--10--10--10--10--10--10--10--10--|--------------------------|
--10--10--10--10--10--10--10--10--|--7--7--7--7--7--7--7--7--|
---8---8---8---8---8---8---8---8--|--7--7--7--7--7--7--7--7--|
---8---8---8---8---8---8---8---8--|--5--5--5--5--5--5--5--5--|
 
 
  E    E   E   E  E    E   E   E      E   E   E   E   E   E   E   E   
----------------------------------|----------------------------------|
----------------------------------|----------------------------------|
--7s--10--10--10--7s--10--10--10--|----------------------------------|
----------------------------------|--10--10--10--10--10--10--10--10--|
--5s---8---8---8--5s---8---8---8--|--10--10--10--10--10--10--10--10--|
----------------------------------|---8---8---8---8---8---8---8---8--|
 
 
   E   E   E   E   E   E   E   E     E  E  E  E  E  E  E  E   
----------------------------------|--------------------------|
----------------------------------|--------------------------|
--10--10--10--10--10--10--10--10--|--------------------------|
--10--10--10--10--10--10--10--10--|--7--7--7--7--7--7--7--7--|
---8---8---8---8---8---8---8---8--|--7--7--7--7--7--7--7--7--|
---8---8---8---8---8---8---8---8--|--5--5--5--5--5--5--5--5--|
 
 
  E    E   E   E  E    E   E   E     E    E   E   E  E    E  E  E    
----------------------------------|---------------------------------|
----------------------------------|---------------------------------|
--7s--10--10--10--7s--10--10--10--|--7s--10--10--10--7s--10--7--7s--|
----------------------------------|---------------------------------|
--5s---8---8---8--5s---8---8---8--|--5s---8---8---8--5s---8--5--5s--|
----------------------------------|---------------------------------|
 
 
  W                  
-------------------||
-------------------||
--5----------------||
-------------------||
--3----------------||
-------------------||
 
 
 
 
Duration Legend
---------------
W - whole
H - half
Q - quarter
E - 8th
S - 16th
T - 32nd
X - 64th
. - note dotted
|-n-|  - n-tuplets
 
 
Tablature Legend
----------------
L - tied note
x - dead note
g - grace note
(n) - ghost note
> - accentuded note
NH - natural harmonic
AH - artificial harmonic
TH - tapped harmonic
SH - semi harmonic
PH - pitch harmonic
h - hammer on
p - pull off
b - bend
br - bendRelease
pb - preBend
pbr - preBendRelease
brb - bendReleaseBend
\n/ - tremolo bar dip
\n - tremolo bar dive
-/n - tremolo bar Release up
/n\ - tremolo bar inverted dip
/n - tremolo bar return
-\n - tremolo bar Release down
S - shift slide
s - legato slide
/ -  slide into from below or out of upwards
\ -  slide into from above or out of downwards
~ - vibrato
W - wide vibrato
tr - tril'
TP - tremolo picking
T - tapping
S - slap
P - pop
< - fade in
^ - brush up
v - brush down

Добавлено: 02.07.2012
Другие материалы по этой песне:

Страница создана 31.03.2012
http://primanota.ru/dreams-from-gin/stereo-fire-chords.htm
Привет, Гость.
Предлагаем пройти революционный курс по гитаре.
Подарок от PrimaNota.Ru, забирай!