PrimaNota.ru - самый крупный в мире бесплатный архив песенных текстов, аккордов, табулатур и нот


Dreams From Gin - On Off - таба, видео

Регистрация Запомнить меня
Войти через:  Facebook Google Twitter Vk Yandex Mail.ru

Dreams From Gin - On Off - таба, видео

Печатать
Просмотров: 164
Уроки эстрадного вокала в Санкт-Петербурге
Guitar (Has Echo during Verse and Solo)


Verse:
     E  E  E  E  E  E  E  E     E  E  E  E  E  E  E  E
E||--------------------------|--------------------------|
B||--------------------------|--------------------------|
G||-----7-----7-----7-----7--|-----7-----7-----7--------|
D||--0-----0-----8-----8-----|--7-----7-----5-----5--3--|
A||--------------------------|--------------------------|
E||--------------------------|--------------------------|



E  E  E  E  E  E  E  E     E  E  E  E  E  E  E  E
--------------------------|--------------------------|
--------------------------|-----------------8-----8--|
-----7-----7-----7-----7--|-----7-----7-----7-----7--|
--0-----0-----8-----8-----|--7-----7-----5-----5-----|
--------------------------|--------------------------|
--------------------------|--------------------------|




Chorus:

  E  E  E  E  E  E  E  E     E  E  E  E  E  E  Q
--------------------------|----------------------------|
--------------------------|----------------------------|
--2--2--2--0--------------|----------------------------|
--0--0--0--0--4--4--4--4--|--5--5--5--5--5--5--7----|--|
--------------4--4--4--4--|--5--5--5--5--5--5--7-------|
--------------2--2--2--2--|--3--3--3--3--3--3--5-------|


Solo:

E   E  E  E   E   E  E  E     E   E  E  E   E   E  E  E
-----------------------------|-----------------------------|
---------------10------------|-----------------------------|
--7--10--8--7------10--8--7--|---------------10------------|
-----------------------------|--7--10--8--7------10--8--7--|
-----------------------------|-----------------------------|
-----------------------------|-----------------------------|


  E  E  E  E  E  E  E  E     E  E  E  E  E  E  E  E
--------------------------|--------------------------|
--------------------------|--2--2--2--2--2--2--2--2--|
--------------------------|--0--0--0--0--0--0--0--0--|
--5--8--7--5--3--5--3--0--|--------------------------|
--------------------------|--------------------------|
--------------------------|--------------------------|
Добавлено: 01.12.2013
Другие материалы по этой песне:
  • Аккорды и текст

Страница создана 01.12.2013
http://primanota.ru/dreams-from-gin/on-off-chords.htm
Привет, Гость.
Предлагаем пройти революционный курс по гитаре.
Подарок от PrimaNota.Ru, забирай!