PrimaNota.ru - самый крупный в мире бесплатный архив песенных текстов, аккордов, табулатур и нот


Dreams From Gin - Hammock - таба, видео

Регистрация Запомнить меня
Войти через:  Facebook Google Twitter Vk Yandex Mail.ru

Dreams From Gin - Hammock - таба, видео

Печатать
Просмотров: 104
Уроки эстрадного вокала в Санкт-Петербурге
www.dreamsfromgin.com

Track 1
     E   E   E  E   E   E  E   E     E   E   E  E   E   E  E   E   
E||-------------------------------|-------------------------------|
B||---------15---------15---------|---------14---------14---------|
G||-----11---------11---------11--|-----11---------11---------11--|
D||--0----------0----------0------|--0----------0----------0------|
A||-------------------------------|-------------------------------|
E||-------------------------------|-------------------------------|
 
 
  E   E   E  E   E   E  E   E     E   E   E   E   E   E   E   E   
-------------------------------|---------------------------------|
---------13---------13---------|---------12--12--13--13--14--14--|
-----11---------11---------11--|-----11--------------------------|
--0----------0----------0------|--0------------------------------|
-------------------------------|---------------------------------|
-------------------------------|---------------------------------|
 
 
  E   E   E  E   E   E  E   E     E   E   E  E   E   E  E   E   
-------------------------------|-------------------------------|
---------15---------15---------|---------14---------14---------|
-----11---------11---------11--|-----11---------11---------11--|
--0----------0----------0------|--0----------0----------0------|
-------------------------------|-------------------------------|
-------------------------------|-------------------------------|
 
 
  E   E   E  E   E   E  E   E     E   E   E   Q.      Q     
-------------------------------|-------------13------12----|
---------13---------13---------|---------12----------------|
-----11---------11---------11--|-----11--------------------|
--0----------0----------0------|--0------------------------|
-------------------------------|---------------------------|
-------------------------------|---------------------------|
 
 
  E   E   E  E   E   E  E   E     E   E   E  E   E   E  E   E   
-------------------------------|-------------------------------|
---------15---------15---------|---------14---------14---------|
-----11---------11---------11--|-----11---------11---------11--|
--0----------0----------0------|--0----------0----------0------|
-------------------------------|-------------------------------|
-------------------------------|-------------------------------|
 
 
  E   E   E  E   E   E  E   E     E   E   E   E   E   E   E   E   
-------------------------------|---------------------------------|
---------13---------13---------|---------12--12--13--13--14--14--|
-----11---------11---------11--|-----11--------------------------|
--0----------0----------0------|--0------------------------------|
-------------------------------|---------------------------------|
-------------------------------|---------------------------------|
 
 
  E   E   E  E   E   E  E   E     E   E   E  E   E   E  E   E   
-------------------------------|-------------------------------|
---------15---------15---------|---------14---------14---------|
-----11---------11---------11--|-----11---------11---------11--|
--0----------0----------0------|--0----------0----------0------|
-------------------------------|-------------------------------|
-------------------------------|-------------------------------|
 
 
  E   E   E  E   E   E  E   E     E   E   E   Q.      Q     
-------------------------------|-------------13------12----|
---------13---------13---------|---------12----------------|
-----11---------11---------11--|-----11--------------------|
--0----------0----------0------|--0------------------------|
-------------------------------|---------------------------|
-------------------------------|---------------------------|
 
 
  E   E   E  E   E   E  E   E     E   E   E  E   E   E  E   E   
-------------------------------|-------------------------------|
---------15---------15---------|---------14---------14---------|
-----11---------11---------11--|-----11---------11---------11--|
--0----------0----------0------|--0----------0----------0------|
-------------------------------|-------------------------------|
-------------------------------|-------------------------------|
 
 
  E   E   E  E   E   E  E   E     E   E   E   E   E   E   E   E   
-------------------------------|---------------------------------|
---------13---------13---------|---------12--12--13--13--14--14--|
-----11---------11---------11--|-----11--------------------------|
--0----------0----------0------|--0------------------------------|
-------------------------------|---------------------------------|
-------------------------------|---------------------------------|
 
 
  E   E   E  E   E   E  E   E     E   E   E  E   E   E  E   E   
-------------------------------|-------------------------------|
---------15---------15---------|---------14---------14---------|
-----11---------11---------11--|-----11---------11---------11--|
--0----------0----------0------|--0----------0----------0------|
-------------------------------|-------------------------------|
-------------------------------|-------------------------------|
 
 
  E   E   E  E   E   E  E   E     E   E   E   Q.      Q     
-------------------------------|-------------13------12----|
---------13---------13---------|---------12----------------|
-----11---------11---------11--|-----11--------------------|
--0----------0----------0------|--0------------------------|
-------------------------------|---------------------------|
-------------------------------|---------------------------|
 
 
  E   E   E  E   E   E  E   E     E   E   E  E   E   E  E   E   
-------------------------------|-------------------------------|
---------15---------15---------|---------14---------14---------|
-----11---------11---------11--|-----11---------11---------11--|
--0----------0----------0------|--0----------0----------0------|
-------------------------------|-------------------------------|
-------------------------------|-------------------------------|
 
 
  E   E   E  E   E   E  E   E     E   E   E   E   E   E   E   E   
-------------------------------|---------------------------------|
---------13---------13---------|---------12--12--13--13--14--14--|
-----11---------11---------11--|-----11--------------------------|
--0----------0----------0------|--0------------------------------|
-------------------------------|---------------------------------|
-------------------------------|---------------------------------|
 
 
  E   E   E  E   E   E  E   E     E   E   E  E   E   E  E   E   
-------------------------------|-------------------------------|
---------15---------15---------|---------14---------14---------|
-----11---------11---------11--|-----11---------11---------11--|
--0----------0----------0------|--0----------0----------0------|
-------------------------------|-------------------------------|
-------------------------------|-------------------------------|
 
 
  E   E   E  E   E   E  E   E     E   E   E   Q.      Q     
-------------------------------|-------------13------12----|
---------13---------13---------|---------12----------------|
-----11---------11---------11--|-----11--------------------|
--0----------0----------0------|--0------------------------|
-------------------------------|---------------------------|
-------------------------------|---------------------------|
 
 
   E   E   E   E   E   E   E   E      E   E   E   E   E   E   E   E   
--14--14--14--14--14---x---x---x--|--14--14--14--14--14---x---x---x--|
--15--15--15--15--15---x---x---x--|--14--14--14--14--14---x---x---x--|
--14--14--14--14--14---x---x---x--|--14--14--14--14--14---x---x---x--|
----------------------------------|----------------------------------|
----------------------------------|----------------------------------|
----------------------------------|----------------------------------|
 
 
   E   E   E   E   E   E   E   E      E   E  E  E  E  E  E  E   
--14--14--14--14--14---x---x---x--|--14--14--2--2--2--2--2--2--|
--13--13--13--13--13---x---x---x--|---0---0--0--0--0--0--0--0--|
--14--14--14--14--14---x---x---x--|--14--14--2--2--2--2--2--2--|
----------------------------------|----------------------------|
----------------------------------|----------------------------|
----------------------------------|----------------------------|
 
 
  E  E  E  E  E  E  E  E     E  E  E  E  E  E  E  E   
--2--2--2--2--2--2--x--x--|--2--2--2--2--2--2--x--x--|
--3--3--3--3--3--3--x--x--|--2--2--2--2--2--2--x--x--|
--2--2--2--2--2--2--x--x--|--2--2--2--2--2--2--x--x--|
--------------------x--x--|--4--4--4--4--4--4--x--x--|
--------------------x--x--|--4--4--4--4--4--4--x--x--|
--1--1--1--1--1--1--x--x--|--2--2--2--2--2--2--x--x--|
 
 
  E  E  E  E  E  E  E  E     E  E  E  E  Q     Q       E  E  E  E  E  E  E  E   
--0--0--0--0--0--0--x--x--|-------------------------|--2--2--2--2--2--2--x--x--|
--1--1--1--1--1--1--x--x--|--0--0--0--0--0-----0----|--3--3--3--3--3--3--x--x--|
--0--0--0--0--0--0--x--x--|--4--4--5--5--6b----0----|--2--2--2--2--2--2--x--x--|
--2--2--2--2--2--2--x--x--|-------------------------|--------------------x--x--|
--3--3--3--3--3--3--x--x--|-------------------------|--------------------x--x--|
--------------------------|-------------------------|--1--1--1--1--1--1--x--x--|
 
 
  E  E  E  E  E  E  E  E     E  E  E  E  E  E  E  E   
--2--2--2--2--2--2--x--x--|--0--0--0--0--0--0--x--x--|
--2--2--2--2--2--2--x--x--|--1--1--1--1--1--1--x--x--|
--2--2--2--2--2--2--x--x--|--0--0--0--0--0--0--x--x--|
--4--4--4--4--4--4--x--x--|--2--2--2--2--2--2--x--x--|
--4--4--4--4--4--4--x--x--|--3--3--3--3--3--3--x--x--|
--2--2--2--2--2--2--x--x--|--------------------------|
 
 
              NH      NH                                    
  Q    Q      Q       Q       E   E   E  E   E   E  E   E   
---------------------------|-------------------------------|
---------------------------|---------15---------15---------|
---------------------------|-----11---------11---------11--|
--2----2-------------------|--0----------0----------0------|
--2----2----<>7----<>12----|-------------------------------|
--0----0-------------------|-------------------------------|
 
 
  E   E   E  E   E   E  E   E     E   E   E  E   E   E  E   E   
-------------------------------|-------------------------------|
---------14---------14---------|---------13---------13---------|
-----11---------11---------11--|-----11---------11---------11--|
--0----------0----------0------|--0----------0----------0------|
-------------------------------|-------------------------------|
-------------------------------|-------------------------------|
 
 
  E   E   E   E   E   E   E   E     E   E   E  E   E   E  E   E   
---------------------------------|-------------------------------|
---------12--12--13--13--14--14--|---------15---------15---------|
-----11--------------------------|-----11---------11---------11--|
--0------------------------------|--0----------0----------0------|
---------------------------------|-------------------------------|
---------------------------------|-------------------------------|
 
 
  E   E   E  E   E   E  E   E     E   E   E  E   E   E  E   E   
-------------------------------|-------------------------------|
---------14---------14---------|---------13---------13---------|
-----11---------11---------11--|-----11---------11---------11--|
--0----------0----------0------|--0----------0----------0------|
-------------------------------|-------------------------------|
-------------------------------|-------------------------------|
 
 
  E   E   E   Q.      Q       E   E   E  E   E   E  E   E   
-------------13------12----|-------------------------------|
---------12----------------|---------15---------15---------|
-----11--------------------|-----11---------11---------11--|
--0------------------------|--0----------0----------0------|
---------------------------|-------------------------------|
---------------------------|-------------------------------|
 
 
  E   E   E  E   E   E  E   E     E   E   E  E   E   E  E   E   
-------------------------------|-------------------------------|
---------14---------14---------|---------13---------13---------|
-----11---------11---------11--|-----11---------11---------11--|
--0----------0----------0------|--0----------0----------0------|
-------------------------------|-------------------------------|
-------------------------------|-------------------------------|
 
 
  E   E   E   E   E   E   E   E     E   E   E  E   E   E  E   E   
---------------------------------|-------------------------------|
---------12--12--13--13--14--14--|---------15---------15---------|
-----11--------------------------|-----11---------11---------11--|
--0------------------------------|--0----------0----------0------|
---------------------------------|-------------------------------|
---------------------------------|-------------------------------|
 
 
  E   E   E  E   E   E  E   E     E   E   E  E   E   E  E   E   
-------------------------------|-------------------------------|
---------14---------14---------|---------13---------13---------|
-----11---------11---------11--|-----11---------11---------11--|
--0----------0----------0------|--0----------0----------0------|
-------------------------------|-------------------------------|
-------------------------------|-------------------------------|
 
 
  E   E   E   Q.      Q       E   E   E  E   E   E  E   E   
-------------13------12----|-------------------------------|
---------12----------------|---------15---------15---------|
-----11--------------------|-----11---------11---------11--|
--0------------------------|--0----------0----------0------|
---------------------------|-------------------------------|
---------------------------|-------------------------------|
 
 
  E   E   E  E   E   E  E   E     E   E   E  E   E   E  E   E   
-------------------------------|-------------------------------|
---------14---------14---------|---------13---------13---------|
-----11---------11---------11--|-----11---------11---------11--|
--0----------0----------0------|--0----------0----------0------|
-------------------------------|-------------------------------|
-------------------------------|-------------------------------|
 
 
  E   E   E   E   E   E   E   E     E   E   E  E   E   E  E   E   
---------------------------------|-------------------------------|
---------12--12--13--13--14--14--|---------15---------15---------|
-----11--------------------------|-----11---------11---------11--|
--0------------------------------|--0----------0----------0------|
---------------------------------|-------------------------------|
---------------------------------|-------------------------------|
 
 
  E   E   E  E   E   E  E   E     E   E   E  E   E   E  E   E   
-------------------------------|-------------------------------|
---------14---------14---------|---------13---------13---------|
-----11---------11---------11--|-----11---------11---------11--|
--0----------0----------0------|--0----------0----------0------|
-------------------------------|-------------------------------|
-------------------------------|-------------------------------|
 
 
  E   E   E   Q.      Q        E   E   E   E   E   E   E   E   
-------------13------12----|--14--14--14--14--14---x---x---x--|
---------12----------------|--15--15--15--15--15---x---x---x--|
-----11--------------------|--14--14--14--14--14---x---x---x--|
--0------------------------|----------------------------------|
---------------------------|----------------------------------|
---------------------------|----------------------------------|
 
 
   E   E   E   E   E   E   E   E      E   E   E   E   E   E   E   E   
--14--14--14--14--14---x---x---x--|--14--14--14--14--14---x---x---x--|
--14--14--14--14--14---x---x---x--|--13--13--13--13--13---x---x---x--|
--14--14--14--14--14---x---x---x--|--14--14--14--14--14---x---x---x--|
----------------------------------|----------------------------------|
----------------------------------|----------------------------------|
----------------------------------|----------------------------------|
 
 
   E   E  E  E  E  E  E  E     E  E  E  E  E  E  E  E   
--14--14--2--2--2--2--2--2--|--2--2--2--2--2--2--x--x--|
---0---0--0--0--0--0--0--0--|--3--3--3--3--3--3--x--x--|
--14--14--2--2--2--2--2--2--|--2--2--2--2--2--2--x--x--|
----------------------------|--------------------x--x--|
----------------------------|--------------------x--x--|
----------------------------|--1--1--1--1--1--1--x--x--|
 
 
  E  E  E  E  E  E  E  E     E  E  E  E  E  E  E  E     E  E  E  E  Q     Q     
--2--2--2--2--2--2--x--x--|--0--0--0--0--0--0--x--x--|-------------------------|
--2--2--2--2--2--2--x--x--|--1--1--1--1--1--1--x--x--|--0--0--0--0--0-----0----|
--2--2--2--2--2--2--x--x--|--0--0--0--0--0--0--x--x--|--4--4--5--5--6b----0----|
--4--4--4--4--4--4--x--x--|--2--2--2--2--2--2--x--x--|-------------------------|
--4--4--4--4--4--4--x--x--|--3--3--3--3--3--3--x--x--|-------------------------|
--2--2--2--2--2--2--x--x--|--------------------------|-------------------------|
 
 
  E  E  E  E  E  E  E  E     E  E  E  E  E  E  E  E   
--2--2--2--2--2--2--x--x--|--2--2--2--2--2--2--x--x--|
--3--3--3--3--3--3--x--x--|--2--2--2--2--2--2--x--x--|
--2--2--2--2--2--2--x--x--|--2--2--2--2--2--2--x--x--|
--------------------x--x--|--4--4--4--4--4--4--x--x--|
--------------------x--x--|--4--4--4--4--4--4--x--x--|
--1--1--1--1--1--1--x--x--|--2--2--2--2--2--2--x--x--|
 
 
                                         NH      NH    
  E  E  E  E  E  E  E  E     Q    Q      Q       Q     
--0--0--0--0--0--0--x--x--|---------------------------|
--1--1--1--1--1--1--x--x--|---------------------------|
--0--0--0--0--0--0--x--x--|--0----0-------------------|
--2--2--2--2--2--2--x--x--|--2----2-------------------|
--3--3--3--3--3--3--x--x--|--2----2----<>7----<>12----|
--------------------------|--0----0-------------------|
 
 
  E  E  E  E  E  E  E  E     E  E  E  E  E  E  E  E   
--2--2--2--2--2--2--x--x--|--2--2--2--2--2--2--x--x--|
--3--3--3--3--3--3--x--x--|--2--2--2--2--2--2--x--x--|
--2--2--2--2--2--2--x--x--|--2--2--2--2--2--2--x--x--|
--------------------x--x--|--4--4--4--4--4--4--x--x--|
--------------------x--x--|--4--4--4--4--4--4--x--x--|
--1--1--1--1--1--1--x--x--|--2--2--2--2--2--2--x--x--|
 
 
  E  E  E  E  E  E  E  E     E  E  E  E  Q     Q       E  E  E  E  E  E  E  E   
--0--0--0--0--0--0--x--x--|-------------------------|--2--2--2--2--2--2--x--x--|
--1--1--1--1--1--1--x--x--|--0--0--0--0--0-----0----|--3--3--3--3--3--3--x--x--|
--0--0--0--0--0--0--x--x--|--4--4--5--5--6b----0----|--2--2--2--2--2--2--x--x--|
--2--2--2--2--2--2--x--x--|-------------------------|--------------------x--x--|
--3--3--3--3--3--3--x--x--|-------------------------|--------------------x--x--|
--------------------------|-------------------------|--1--1--1--1--1--1--x--x--|
 
 
  E  E  E  E  E  E  E  E     E  E  E  E  E  E  E  E   
--2--2--2--2--2--2--x--x--|--0--0--0--0--0--0--x--x--|
--2--2--2--2--2--2--x--x--|--1--1--1--1--1--1--x--x--|
--2--2--2--2--2--2--x--x--|--0--0--0--0--0--0--x--x--|
--4--4--4--4--4--4--x--x--|--2--2--2--2--2--2--x--x--|
--4--4--4--4--4--4--x--x--|--3--3--3--3--3--3--x--x--|
--2--2--2--2--2--2--x--x--|--------------------------|
 
 
              NH      NH      PM PM PM PM PM PM PM PM  
  Q    Q      Q       Q       E  E  E  E  E  E  E  E   
---------------------------|--2--2--2--2--2--2--2--2--|
---------------------------|--3--3--3--3--3--3--3--3--|
--0----0-------------------|--2--2--2--2--2--2--2--2--|
--2----2-------------------|--------------------------|
--2----2----<>7----<>12----|--------------------------|
--0----0----<>7----<>12----|--------------------------|
 
 
  PM PM PM PM PM PM PM PM    PM PM PM PM PM PM PM PM  
  E  E  E  E  E  E  E  E     E  E  E  E  E  E  E  E   
--2--2--2--2--2--2--2--2--|--2--2--2--2--2--2--2--2--|
--2--2--2--2--2--2--2--2--|--1--1--1--1--1--1--1--1--|
--2--2--2--2--2--2--2--2--|--2--2--2--2--2--2--2--2--|
--------------------------|--------------------------|
--------------------------|--------------------------|
--------------------------|--------------------------|
 
 
  PM PM PM PM PM PM PM PM    PM PM PM PM PM PM PM PM  
  E  E  E  E  E  E  E  E     E  E  E  E  E  E  E  E   
--2--2--2--2--2--2--2--2--|--2--2--2--2--2--2--2--2--|
--2--2--2--2--2--2--2--2--|--3--3--3--3--3--3--3--3--|
--2--2--2--2--2--2--2--2--|--2--2--2--2--2--2--2--2--|
--------------------------|--------------------------|
--------------------------|--------------------------|
--------------------------|--------------------------|
 
 
  PM PM PM PM PM PM PM PM    PM PM PM PM PM PM PM PM  
  E  E  E  E  E  E  E  E     E  E  E  E  E  E  E  E   
--2--2--2--2--2--2--2--2--|--2--2--2--2--2--2--2--2--|
--2--2--2--2--2--2--2--2--|--1--1--1--1--1--1--1--1--|
--2--2--2--2--2--2--2--2--|--2--2--2--2--2--2--2--2--|
--------------------------|--------------------------|
--------------------------|--------------------------|
--------------------------|--------------------------|
 
 
  PM PM PM PM PM PM PM PM    PM PM PM PM PM PM PM PM  
  E  E  E  E  E  E  E  E     E  E  E  E  E  E  E  E   
--2--2--2--2--2--2--2--2--|--2--2--2--2--2--2--2--2--|
--2--2--2--2--2--2--2--2--|--3--3--3--3--3--3--3--3--|
--2--2--2--2--2--2--2--2--|--2--2--2--2--2--2--2--2--|
--------------------------|--------------------------|
--------------------------|--------------------------|
--------------------------|--------------------------|
 
 
  PM PM PM PM PM PM PM PM    PM PM PM PM PM PM PM PM  
  E  E  E  E  E  E  E  E     E  E  E  E  E  E  E  E   
--2--2--2--2--2--2--2--2--|--2--2--2--2--2--2--2--2--|
--2--2--2--2--2--2--2--2--|--1--1--1--1--1--1--1--1--|
--2--2--2--2--2--2--2--2--|--2--2--2--2--2--2--2--2--|
--------------------------|--------------------------|
--------------------------|--------------------------|
--------------------------|--------------------------|
 
 
  PM PM PM PM PM PM PM PM    PM PM PM PM PM PM PM PM  
  E  E  E  E  E  E  E  E     E  E  E  E  E  E  E  E   
--2--2--2--2--2--2--2--2--|--2--2--2--2--2--2--2--2--|
--2--2--2--2--2--2--2--2--|--3--3--3--3--3--3--3--3--|
--2--2--2--2--2--2--2--2--|--2--2--2--2--2--2--2--2--|
--------------------------|--------------------------|
--------------------------|--------------------------|
--------------------------|--------------------------|
 
 
  PM PM PM PM PM PM PM PM    PM PM PM PM PM PM PM PM  
  E  E  E  E  E  E  E  E     E  E  E  E  E  E  E  E   
--2--2--2--2--2--2--2--2--|--2--2--2--2--2--2--2--2--|
--2--2--2--2--2--2--2--2--|--1--1--1--1--1--1--1--1--|
--2--2--2--2--2--2--2--2--|--2--2--2--2--2--2--2--2--|
--------------------------|--------------------------|
--------------------------|--------------------------|
--------------------------|--------------------------|
 
 
  PM PM PM PM PM PM PM PM    PM PM PM PM PM PM PM PM  
  E  E  E  E  E  E  E  E     E  E  E  E  E  E  E  E   
--2--2--2--2--2--2--2--2--|--2--2--2--2--2--2--2--2--|
--2--2--2--2--2--2--2--2--|--3--3--3--3--3--3--3--3--|
--2--2--2--2--2--2--2--2--|--2--2--2--2--2--2--2--2--|
--------------------------|--------------------------|
--------------------------|--------------------------|
--------------------------|--------------------------|
 
 
  PM PM PM PM PM PM PM PM    PM PM PM PM PM PM PM PM  
  E  E  E  E  E  E  E  E     E  E  E  E  E  E  E  E   
--2--2--2--2--2--2--2--2--|--2--2--2--2--2--2--2--2--|
--2--2--2--2--2--2--2--2--|--1--1--1--1--1--1--1--1--|
--2--2--2--2--2--2--2--2--|--2--2--2--2--2--2--2--2--|
--------------------------|--------------------------|
--------------------------|--------------------------|
--------------------------|--------------------------|
 
 
  PM PM PM PM  PM  PM  PM  PM                             
  E  E  E  E   E   E   E   E     E  E  E  E  E  E  E  E   
--2--2--5--7--14--14--14---x--|--2--2--2--2--2--2--x--x--|
--0--0--0--0---0---0---0---x--|--3--3--3--3--3--3--x--x--|
--2--2--5--7--14--14--14---x--|--2--2--2--2--2--2--x--x--|
------------------------------|--------------------x--x--|
------------------------------|--------------------x--x--|
------------------------------|--1--1--1--1--1--1--x--x--|
 
 
  E  E  E  E  E  E  E  E     E  E  E  E  E  E  E  E     E  E  E  E  Q     Q     
--2--2--2--2--2--2--x--x--|--0--0--0--0--0--0--x--x--|-------------------------|
--2--2--2--2--2--2--x--x--|--1--1--1--1--1--1--x--x--|--0--0--0--0--0-----0----|
--2--2--2--2--2--2--x--x--|--0--0--0--0--0--0--x--x--|--4--4--5--5--6b----0----|
--4--4--4--4--4--4--x--x--|--2--2--2--2--2--2--x--x--|-------------------------|
--4--4--4--4--4--4--x--x--|--3--3--3--3--3--3--x--x--|-------------------------|
--2--2--2--2--2--2--x--x--|--------------------------|-------------------------|
 
 
  E  E  E  E  E  E  E  E     E  E  E  E  E  E  E  E   
--2--2--2--2--2--2--x--x--|--2--2--2--2--2--2--x--x--|
--3--3--3--3--3--3--x--x--|--2--2--2--2--2--2--x--x--|
--2--2--2--2--2--2--x--x--|--2--2--2--2--2--2--x--x--|
--------------------x--x--|--4--4--4--4--4--4--x--x--|
--------------------x--x--|--4--4--4--4--4--4--x--x--|
--1--1--1--1--1--1--x--x--|--2--2--2--2--2--2--x--x--|
 
 
                                         NH      NH    
  E  E  E  E  E  E  E  E     Q    Q      Q       Q     
--0--0--0--0--0--0--x--x--|---------------------------|
--1--1--1--1--1--1--x--x--|---------------------------|
--0--0--0--0--0--0--x--x--|---------------------------|
--2--2--2--2--2--2--x--x--|--2----2-------------------|
--3--3--3--3--3--3--x--x--|--2----2----<>7----<>12----|
--------------------------|--0----0-------------------|
 
 
  E  E  E  E  E  E  E  E     E  E  E  E  E  E  E  E   
--2--2--2--2--2--2--x--x--|--2--2--2--2--2--2--x--x--|
--3--3--3--3--3--3--x--x--|--2--2--2--2--2--2--x--x--|
--2--2--2--2--2--2--x--x--|--2--2--2--2--2--2--x--x--|
--------------------x--x--|--4--4--4--4--4--4--x--x--|
--------------------x--x--|--4--4--4--4--4--4--x--x--|
--1--1--1--1--1--1--x--x--|--2--2--2--2--2--2--x--x--|
 
 
  E  E  E  E  E  E  E  E     E  E  E  E  Q     Q       E  E  E  E  E  E  E  E   
--0--0--0--0--0--0--x--x--|-------------------------|--2--2--2--2--2--2--x--x--|
--1--1--1--1--1--1--x--x--|--0--0--0--0--0-----0----|--3--3--3--3--3--3--x--x--|
--0--0--0--0--0--0--x--x--|--4--4--5--5--6b----0----|--2--2--2--2--2--2--x--x--|
--2--2--2--2--2--2--x--x--|-------------------------|--------------------x--x--|
--3--3--3--3--3--3--x--x--|-------------------------|--------------------x--x--|
--------------------------|-------------------------|--1--1--1--1--1--1--x--x--|
 
 
  E  E  E  E  E  E  E  E     E  E  E  E  E  E  E  E   
--2--2--2--2--2--2--x--x--|--0--0--0--0--0--0--x--x--|
--2--2--2--2--2--2--x--x--|--1--1--1--1--1--1--x--x--|
--2--2--2--2--2--2--x--x--|--0--0--0--0--0--0--x--x--|
--4--4--4--4--4--4--x--x--|--2--2--2--2--2--2--x--x--|
--4--4--4--4--4--4--x--x--|--3--3--3--3--3--3--x--x--|
--2--2--2--2--2--2--x--x--|--------------------------|
 
 
              NH      NH                                                      
  Q    Q      Q       Q       Q       Q       Q       E  E  E  E  Q     Q     
---------------------------|--2----|--2----|--0----|-------------------------|
---------------------------|--3----|--2----|--1----|--0--0--0--0--0-----0----|
---------------------------|--2----|--2----|--0----|--4--4--5--5--6b----0----|
--2----2-------------------|-------|--4----|--2----|-------------------------|
--2----2----<>7----<>12----|-------|--2----|--3----|-------------------------|
--0----0-------------------|--1----|--2----|-------|-------------------------|
 
 
                                      NH      NH             
  Q       Q       Q       Q    Q      Q       Q              
--2----|--2----|--0----|---------------------------|-------||
--3----|--2----|--1----|---------------------------|-------||
--2----|--2----|--0----|---------------------------|-------||
-------|--4----|--2----|--2----2-------------------|-------||
-------|--2----|--3----|--2----2----<>7----<>12----|-------||
--1----|--2----|-------|--0----0-------------------|-------||
 
 
 
 
Duration Legend
---------------
W - whole
H - half
Q - quarter
E - 8th
S - 16th
T - 32nd
X - 64th
. - note dotted
|-n-|  - n-tuplets
 
 
Tablature Legend
----------------
L - tied note
x - dead note
g - grace note
(n) - ghost note
> - accentuded note
NH - natural harmonic
AH - artificial harmonic
TH - tapped harmonic
SH - semi harmonic
PH - pitch harmonic
h - hammer on
p - pull off
b - bend
br - bendRelease
pb - preBend
pbr - preBendRelease
brb - bendReleaseBend
\n/ - tremolo bar dip
\n - tremolo bar dive
-/n - tremolo bar Release up
/n\ - tremolo bar inverted dip
/n - tremolo bar return
-\n - tremolo bar Release down
S - shift slide
s - legato slide
/ -  slide into from below or out of upwards
\ -  slide into from above or out of downwards
~ - vibrato
W - wide vibrato
tr - tril'
TP - tremolo picking
T - tapping
S - slap
P - pop
< - fade in
^ - brush up
v - brush down
Добавлено: 28.03.2012
Другие материалы по этой песне:

Страница создана 28.03.2012
http://primanota.ru/dreams-from-gin/hammock-chords.htm
Привет, Гость.
Предлагаем пройти революционный курс по гитаре.
Подарок от PrimaNota.Ru, забирай!