PrimaNota.ru - самый крупный в мире бесплатный архив песенных текстов, аккордов, табулатур и нот


Dreamland - Worlds Apart - таба, видео

Регистрация Запомнить меня
Войти через:  Facebook Google Twitter Vk Yandex Mail.ru

Dreamland - Worlds Apart - таба, видео

Печатать
Просмотров: 90
Tabbed by: Jonbon207
E standard

************************************

| \   Slide down
| *   Harmonic
| .   Palm mute
| ~   Vibrato

************************************

Verse:

e|-------------------------------------------------------------------------------|
B|-----1-0-1--------1-0-1---------1-0-1--------1-0-1--------1-0-1--------1-0-1---|
G|---0-------0----0-------0-----0-------0----0-------0----0-------0----0-------0-|  x4
D|-------------------------------------------------------------------------------|
A|-3--------------------------0--------------------------------------------------|
E|--------------3--------------------------0------------1------------3-----------|

e|----------------------------|
B|------1-0-1-----------------|
G|----0-------0---------------|
D|----------------------------|
A|----------------------------|
E|--1------------3------------|

Chorus:
           C                   G                  Am                  Em
e|---------0-------------------3-------------------0-------------------0--------|
B|-------1---1-------------------3---------------1---1-------------------0------|
G|-----0-------0-------------0-----0-----------2-------2-------------0-----0----|
D|---2-----------2---------0---------0-------2-----------2---------2----------2-|
A|-3---------------------2-----------------0---------------------2--------------|
E|---------------------3---------------------------------------0----------------|
           F                   G                    C                    G
e|---------1-------------------3--------------------0-------------------3-------|
B|-------1---1-------------------3----------------1---1-------------------3-----|
G|-----2-------2-------------0-----0------------0-------0------------0------0---|
D|---3-----------3---------0---------0--------2-----------2--------0----------0-|
A|-----------------------2------------------3--------------------2--------------|
E|-1-------------------3---------------------------------------3----------------|
           C                   G                  Am                  Em
e|---------0-------------------3-------------------0-------------------0--------|
B|-------1---1-------------------3---------------1---1-------------------0------|
G|-----0-------0-------------0-----0-----------2-------2-------------0-----0----|
D|---2-----------2---------0---------0-------2-----------2---------2----------2-|
A|-3---------------------2-----------------0---------------------2--------------|
E|---------------------3---------------------------------------0----------------|
           F                   G                    C                  
e|---------1-------------------3--------------------0---------------------------|
B|-------1---1-------------------3----------------1---1-------------------------|
G|-----2-------2-------------0-----0------------0-------0-----------------------|
D|---3-----------3---------0---------0--------2-----------2---------------------|
A|-0---------------------2------------------3---------------3-------------------|
E|---------------------3--------------------------------------------------------|

Verse:

e|------------------------------------------------------------------------|
B|------------------------------------------------------------------------|
G|-5-5-5----5-----------------2-2-2----2----------------------------------|
D|-5-5-5----5-5-5-5-----------2-2-2----2-2-2-2--2--2-3-3-3----3-5-5-5-----| x4
A|-3-3-3----3-5-5-5-----------0-0-0----0-2-2-2--2--2-3-3-3----3-5-5-5--7\-|
E|------------3-3-3--4*~~~---------------0-0-0--0--0-1-1-1----1-3-3-3--8\-|
   . . .    . . . .           . . .    . . . .  .  . . . .    . . . .
e|---------------------------------|
B|---------------------------------|
G|---------------------------------|
D|--3------------5-----------------|
A|--3------------5-----------------|
E|--1------------3-----------------|

e|------------------------------------------------------|
B|------------------------------------------------------|
G|-5-------------2---------------------------5----------|
D|-5------5------2------2------3------5------5------5---|
A|-3------5------0------2------3------5------3------5---|
E|--------3-------------0------1------3-------------3---|

e|----------------------------------------------|
B|----------------------------------------------|
G|-5-------------2---------------------------5--|
D|-5------5------2------2------3------5------5--|
A|-3------5------0------2------3------5------3--|
E|--------3-------------0------1------3---------|

e|----------------------------------|
B|----------------------------------|
G|----------------------------------| Couldn't hear very well
D|----------------------0-2-3-------| but I think it's close.
A|--------0-1-3--0-2-3--------------| 
E|-0-1-3----------------------------|
   . . .  . . .
e|------------------------------------------------------|
B|------------------------------------------------------|
G|-5-------------2---------------------------5----------|
D|-5------5------2------2------3------5------5------5---|
A|-3------5------0------2------3------5------3------5---|
E|--------3-------------0------1------3-------------3---|

e|----------------------------------------------|
B|----------------------------------------------|
G|-5-------------2---------------------------5--|
D|-5------5------2------2------3------5------5--|
A|-3------5------0------2------3------5------3--|
E|--------3-------------0------1------3---------|

http://www.dream-land.nu/band.php
Добавлено: 21.07.2012
Другие материалы по этой песне:
  • Аккорды и текст

Страница создана 21.07.2012
http://primanota.ru/dreamland/worlds-apart-chords.htm
Привет, Гость.
Предлагаем пройти революционный курс по гитаре.
Подарок от PrimaNota.Ru, забирай!