PrimaNota.ru - самый крупный в мире бесплатный архив песенных текстов, аккордов, табулатур и нот


Dream Theater - You Not Me - аккорды и текст, таба, бас-таба, видео

Регистрация Запомнить меня
Войти через:  Facebook Google Twitter Vk Yandex Mail.ru

Dream Theater - You Not Me - аккорды и текст, таба, бас-таба, видео

Печатать
Просмотров: 196
You Not Me
Dream Theater
                Intro                   2x
[E-------------------------------------------------------------------
B-------------------------------------------------------------------
G---*--4:----------------------------------------------*------------
D---*--4:----------------------------------------------*------------
A-------------------------------------------------------------------
E----------0h2--2--2~~~--0--2~~~--0--2~~~--0--2--5~~~-----0h2--2----]

                              verse (bass guitar)
[E----------------------------------------------------------------------
B----------------------------------------------------------------------
G----------------------------------------------------------------------
D----------------------------------------------------------------------
A------------------------------4--------3------------------------------
E---2--2~~~--0--2~~~--0--2~~~-----0--2-----2---------------------------

E---------------------------------------------------------------------
B---------------------------------------------------------------------
G------------------------------------------------*--4h6--6--6--6------
D------------------------------------------------*--4----4--4--4------
A---------------------------------------------------------------------
E---------------------------------------------------------------------]

                2x                        chorus
[E------------------0h2------------------------------------4--------
B------5--5--5--0--------------------------------------------4-----
G---6--4--4--4----------*--4h6--6--6--6----------3----------------
D---4-------------------*--4----4--4--4--4--4--6-------6-----------
A------------------------------------------------------6-----------
E------------------------------------------------------4-----------

E------------2-----------------------------0----------------4-----4----
B---------------5-----------0-----------------0----------------4-------
G---------4--------------------3---------------------------------------
D---------2--------------4--------------2----------------6-------------
A------------------------4--------------2----------------6-------------
E---------4--------------2--------------0-----------2----4-------------

E---------------2-----2-----6--------------0---------------------------
B------------------2-----------7--------------0------------------------
G------------4---------------------------------------------------------
D------------4-----------8--------------9----------------------6-------
A------------2-----------6--------------7-----------7----------6-------
E---------------------------------------0--------------0--2----4-------

E------------------------------------------------------------
B------------------------------------------------------------
G------------------------------------------------------------
D---4--------2--------4--------6--------4--------2-----------
A---4--------2--------4--------6--------4--------2-----------
E---2--------0--------2--------4--------2--------0-----------]

                  3x
[E---------------------------
B---------------------------
G--------------------------*
D-----------------------2--*
A-----------------------2---
E---32--32--32--32--0---]

verse... hear the record... there is as good as nothing new...

guitar solo
[E--------------------------------------------------------------------
B--------------------------------------------------------------------
G-----------4--6~~~--x--x--x--x--x--x--x--x--x----2--2--4--4---------
D-----------4--4~~~--x--x--x--x--x--x--x--x--x----2--2--2--2---------
A--------------------------------------------------------------------
E--------------------------------------------------------------------

E----------------------------------------------------------------------
B----------------------------------------------------------------------
G---4h6--6--6------x--x--x--x--x--x--x--x--x--x---------2--2----------
D---4----4--4--------------------------------------------2--2--2--2----
A----------------------------------------------------------------------
E---------------------------------------------------------------------

E----------------------------------6----7--5--4-------------------------
B-------------------------5--5-----5---7--5--5------p------------------
G---------4h6--6--6---4--4--4--x--6----------4--4^--4--2---------------
D---------4----4--4----4-----------------------------------4--2---------
A-----------------------------------------------------------------------
E-----------------------------------------------------------------------

E-----------------------14---------------------------------------------
B-------------------16^----17-16-15-14---------------------------------
G------4h6--6--------------------------17-16-15-14---------------------
D------4----4--------------------------------------16-15-14-15-16------
A----------------------------------------------------------------------
E----------------------------------------------------------------------

E-------------------------------
B-------------------------------
G---------14-16-14--------------
D-------------------16-15-------
A-------------------------------
E-------------------------------]
                                P.M..............   3x
[E-------------------------------------------------------------------
B---------------------14--------------5----------------------------
G---------------------14-----------4--4-----*--4-----2------------*
D---14-15---------------------------4--------*-----------4-----2---*
A-------------------------------------------------------------------
E-------------------------------------------------------------------]

chorus...
Добавлено: 21.04.2014
Другие материалы по этой песне:

Страница создана 08.03.2012
http://primanota.ru/dream-theater/you-not-me-chords.htm
Привет, Гость.
Предлагаем пройти революционный курс по гитаре.
Подарок от PrimaNota.Ru, забирай!