PrimaNota.ru - самый крупный в мире бесплатный архив песенных текстов, аккордов, табулатур и нот


Dream Theater - Train Of Thought (album) - таба, видео

Регистрация Запомнить меня
Войти через:  Facebook Google Twitter Vk Yandex Mail.ru

Dream Theater - Train Of Thought (album) - таба, видео

Печатать
Просмотров: 186
Band - Dream Theater
Album - Train Of Thought (2003)

Track Listings:
1. As I Am..................Thenid
2. This Dying Soul..........scotty_6677
3. Endless Sacrifice........unregistered
4. Honor Thy Father.........Iron Pete
5. Vacant...................Andrew Zara (ME!!!)
6. Stream Of Consciousness..unregistered
7. In The Name Of God.......Thenid

--------------------------------------------------------------------

1. AS I AM
Tuning - C,F,Bb,Eb,G,C

Intro
  Q=98
                            E5
 4/4
  Gtr I
  W          Wx8            H     Q.   E   +W      4x
|----------|------------||---------------|---------||
|----------|------------||o-------5----5-|-(5)----o||
|----------|------------||--------4----3-|-(3)-----||
|----------|------------||--2-----2----2-|-(2)-----||
|----------|------------||o-2----(2)-----|--------o||
|----------|------------||--0----(0)-----|---------||


  N.C.
                  ~~~
  H    E E E E   +W           H    E E E E   +H.      +E.    +S
|--------------|------------|--------------|----------------------|
|--------------|------------|--------------|----------------------|
|--------------|------------|--------------|----------------------|
|--------------|------------|--------------|----------------------|
|------7---7---|------------|------7---7---|----------------------|
|-0------0---6-|-(6)--------|-0------0---6-|-(6)------(6)b7==(6)r-|


                                           Q=130
                  ~~~
  H    E E E E   +W           H    E E E E   +H.      +E.    +S
|--------------|------------|--------------|----------------------|
|--------------|------------|--------------|----------------------|
|--------------|------------|--------------|----------------------|
|--------------|------------|--------------|----------------------|
|------7---7---|------------|------7---7---|----------------------|
|-0------0---6-|-(6)--------|-0------0---6-|-(6)------(6)b7==(6)r-|


    E5      N.C.                     G5
      PM--|   PM  ~~~~~~~~   ~~~~~~
    E E E E E E E E   +Q   E E +E  E Q   4x
||------------------|--------------------||-|
||o-----------------|-------------------o||-|
||------------------|--------------------||-|
||------------------|--------------------||-|
||o-2-------7---7---|------7-------7-5--o||-|
||--0-0-0-0---0---6-|-(6)----5-(5)---3---||-|


    E5      N.C.
      PM--------------|       PM--------------|
    E E E E S S S S S S E   E E E E S S S S S S E
||------------------------|------------------------|
||o-----------------------|------------------------|
||------------------------|------------------------|
||------------------------|------------------------|
||o-2-------8-7-5-8-7-5-8-|-7-------8-7-5-8-7-5-7--|
||--0-0-0-0---------------|---0-0-0----------------|


                          1.                      2.
                                  G5    F5                G5    Bb5
  PM----------------|       PM--------------|       PM------------|
  E E E E S S S S S S E   E E E E S S E S S E     E E E E S S E S S E
|-----------------------|----------------------||---------------------|
|-----------------------|---------------------o||---------------------|
|-----------------------|----------------------||---------------------|
|-----------------------|----------------------||---------------------|
|---------8-7-5-8-7-5-8-|-7-----------5-----3-o||-7-----------5-----8-|
|-0-0-0-0---------------|---0-0-0-3-3-3-1-1-1--||---0-0-0-3-3-3-6-6-6-|


   Verse
    E5      N.C.              E5    N.C.            E5      N.C.
      PM--------------|       PM--------------|     PM----------------|
    E E E E S S S S S S E   E E E E S S S S S S E   E E E E S S S S S S E
||------------------------|-----------------------|------------------------|
||o-----------------------|-----------------------|------------------------|
||------------------------|-----------------------|------------------------|
||------------------------|-----------------------|------------------------|
||o-2-2-2-2-8-7-5-8-7-5-8-|-7-2-2-2-8-7-5-8-7-5-7-|-2-2-2-2-8-7-5-8-7-5-8--|
||--0-0-0-0---------------|---0-0-0---------------|-0-0-0-0----------------|


    E5    G5    F5      E5      N.C.              E5    N.C.
    PM|   PM--------|     PM--------------|       PM--------------|
  E E E E S S E S S E   E E E E S S S S S S E   E E E E S S S S S S E
|---------------------|-----------------------|------------------------|
|---------------------|-----------------------|------------------------|
|---------------------|-----------------------|------------------------|
|---------------------|-----------------------|------------------------|
|-7-2-2-2-----5-----3-|-2-2-2-2-8-7-5-8-7-5-8-|-7-2-2-2-8-7-5-8-7-5-7--|
|---0-0-0-3-3-3-1-1-1-|-0-0-0-0---------------|---0-0-0----------------|


                                                 Pre-Chorus
                                              $
  E5      N.C.              E5    G5    Bb5       N.C.(Bm)
                                                  Gtr II
  PM----------------|       PM|   PM------|
  E E E E S S S S S S E   E E E E S S E S S E     Q  H      Q
|-----------------------|----------------------||---------------|
|-----------------------|---------------------o||----0------0---|
|-----------------------|----------------------||---------------|
|-----------------------|----------------------||---------------|
|-2-2-2-2-8-7-5-8-7-5-8-|-7-2-2-2-----5-----8-o||-2-------------|
|-0-0-0-0---------------|---0-0-0-3-3-3-6-6-6--||-------3-----2-|
                                                  H     Q.    E


                                         3/4             4/4
  +E  Q.    +E  Q.      +Q   H      Q     +E  E +Q   Q    +Q   H      Q
|---------------------|-----------------|---------------|------------------|
|-(0)-0-----(0)-0-----|-(0)--0------0---|-(0)-0-(0)--0--|-(0)--0------0----|
|---------------------|-----------------|---------------|------------------|
|---------------------|-----------------|---------------|------------------|
|---------0-(0)----3--|--2--------------|---------------|--2---------------|
|-(2)-----------------|---------3-----2-|-(2)----0------|---------3-----2--|
  +Q.     E +Q     Q     H      Q.    E   +Q     H         H      Q.    E


 5/4                       4/4
                                                                Gtrs I, II
  +E  Q.    +E  E +Q   Q    +Q   H      Q     +E  E +Q   H      Q  H      Q
|-------------------------|-----------------|-----------------|----------------|
|-(0)-0-----(0)-0-(0)--0--|-(0)--0------0---|-(0)-0-(0)--0----|----0------0----|
|-------------------------|-----------------|-----------------|----------------|
|-------------------------|-----------------|-----------------|----------------|
|---------0-(0)----3------|--2--------------|-----------------|-2--------------|
|-(2)---------------------|---------3-----2-|-(2)----0--------|-------3-----2--|
  +Q.     E +Q     H         H      Q.    E   +Q     H.         H     Q.    E


                                          3/4             4/4
  +E  Q.     +E  Q.      +Q   H      Q     +E  E +Q   Q    +Q   H      Q
|----------------------|-----------------|---------------|------------------|
|-(0)-0------(0)-0-----|-(0)--0------0---|-(0)-0-(0)--0--|-(0)--0------0----|
|----------------------|-----------------|---------------|------------------|
|----------------------|-----------------|---------------|------------------|
|----------0-(0)----3--|--2--------------|---------------|--2---------------|
|-(2)----2-------------|---------3-----2-|-(2)----0------|---------3-----2--|
  +Q     E E +Q     Q     H      Q.    E   +Q     H         H      Q.    E


 5/4                        4/4               6/4
  +E  Q.     +E  E +Q   Q    +Q   H      Q     +E  Q.     +W
|--------------------------|-----------------|-------------------|
|-(0)-0------(0)-0-(0)--0--|-(0)--0------0---|-(0)-0------(0)----|
|--------------------------|-----------------|-------------------|
|--------------------------|-----------------|-------------------|
|----------0-(0)----3------|--2--------------|-------------------|
|-(2)----2-----------------|---------3-----2-|-(2)----2-1-(1)----|
  +Q     E E +Q     H         H      Q.    E   +Q     E E +W


 Chorus
  $$
  E5         F#G5               F#5          F5        N.C.
 4/4              3/4          4/4
  Gtr I
           PM|                                               ~~~
  H    +E  E E E   +H     E E   H    +E  E E E   +E  E  E E  Q   E E
|----------------|------------|----------------|---------------------|
|----------------|------------|----------------|---------------------|
|----------------|------------|----------------|---------------------|
|-2----(2)-----5-|-(5)--------|-4----(4)-----3-|-(3)-----------------|
|-2----(2)-2-4-5-|-(5)----2---|-4----(4)-2---3-|-(3)---/5-4-[3]--0-2-|
|-0----(0)-0-2-3-|-(3)------3-|-2----(2)---2-1-|-(1)-1---------------|


  E5         F#G5               F#5          F5        C5
                  3/4          4/4
           PM|
  H    +E  E E E   +H     E E   H    +E  E E E   E E E E E E E E
|----------------|------------|----------------|------------------|
|----------------|------------|----------------|------------------|
|----------------|------------|----------------|------------------|
|-2----(2)-----5-|-(5)--------|-4----(4)-----3-|---3---5---5---5--|
|-2----(2)-2-4-5-|-(5)----2---|-4----(4)-2---3-|---3---3---3---3--|
|-0----(0)-0-2-3-|-(3)------3-|-2----(2)---2-1-|---1--------------|


  E5                 (G)                      (F#sus4)
  Q.   E +E   E   E  E   +Q   E E  E   E   E  E
|----------------------|------------------------|
|------0-(0)-(0)-(0)---|--------0-(0)-(0)-(0)---|
|----------------------|------------------------|
|-2--------------------|------------------------|
|-2--------------------|---------------2--------|
|-0-----------0---2--3-|-(3)--3----3-------3--2-|


                       (Fb5)     N.C.
                                       ~~~
  +Q   E E  E   E   E  E   +E  E  E E  Q   E E
|------------------------|---------------------|
|--------0-(0)-(0)-(0)---|---------------------|
|------------------------|---------------------|
|------------------------|---------------------|
|---------------2--------|-------/5-4-[3]--0-2-|
|-(2)--2----2-------2--1-|-(1)-1---------------|


  E5                 (G)                      (F#sus4)
  Q.   E +E   E   E  E   +Q   E E  E   E   E  E
|----------------------|------------------------|
|------0-(0)-(0)-(0)---|--------0-(0)-(0)-(0)---|
|----------------------|------------------------|
|-2--------------------|------------------------|
|-2--------------------|---------------2--------|
|-0-----------0---2--3-|-(3)--3----3-------3--2-|


                                To Coda
                       F5        C5
                          3/4
  +Q   E E  E   E   E  E   E E E E E E
|------------------------|--------------||
|--------0-(0)-(0)-(0)---|--------------||
|------------------------|--------------||
|----------------------3-|---3---5---5--||
|---------------2------3-|---3---3---3--||
|-(2)--2----2-------2--1-|---1----------||


                                                              To Dbl. Coda
  E5     N.C.                     G5     E5      N.C.                     G5
 4/4
     PM|   PM  ~~~~~~~~   ~~~~~~           PM--|   PM  ~~~~~~~~   ~~~~~~
  Q  E E E E E E   +Q   E E +E  E Q      E E E E E E E E   +Q   E E +E  E Q   3x
|----------------|-------------------||------------------|--------------------||
|----------------|-------------------||o-----------------|-------------------o||
|----------------|-------------------||------------------|--------------------||
|-2--------------|-------------------||------------------|--------------------||
|-2------7---7---|------7-------7-5--||o-2-------7---7---|------7-------7-5--o||
|-0--0-0---0---6-|-(6)----5-(5)---3--||--0-0-0-0---0---6-|-(6)----5-(5)---3---||


   Verse
    E5            N.C.              E5          N.C.
       PM-------------------|        PM-------------------|
    E  E   E   E  S S S S S S E   E  E   E   E  S S S S S S E
||------------------------------|-----------------------------|
||o-----------------------------|-----------------------------|
||------------------------------|-----------------------------|
||------------------------------|-----------------------------|
||o-2-(2)-(2)-(2)-8-7-5-8-7-5-8-|-7-(2)-(2)-(2)-8-7-5-8-7-5-7-|
||--0--0---0---0----------------|----0---0---0----------------|


  E5              N.C.
   PM-----------------------|
   E   E   E   E  S S S S S S E
|--------------------------------|
|--------------------------------|
|--------------------------------|
|--------------------------------|
|-(2)-(2)-(2)-(2)-8-7-5-8-7-5-8--|
|--0---0---0---0-----------------|


    E5          G5    F5      E5            N.C.
     PM-|       PM------|        PM-------------------|
  E  E   E   E  S S E S S E   E  E   E   E  S S S S S S E
|---------------------------|-----------------------------|
|---------------------------|-----------------------------|
|---------------------------|-----------------------------|
|---------------------------|-----------------------------|
|-7-(2)-(2)-(2)-----5-----3-|-2-(2)-(2)-(2)-8-7-5-8-7-5-8-|
|----0---0---0--3-3-3-1-1-1-|-0--0---0---0----------------|


    E5          N.C.
 7/8
     PM-------------------|
  E  E   E   E  S S S S S S
|----------------------------|
|----------------------------|
|----------------------------|
|----------------------------|
|-7-(2)-(2)-(2)-8-7-5-8-7-5--|
|----0---0---0---------------|


                                            D.S. al Coda
    E5          N.C.              E5          G5    Bb5
 4/4
     PM-------------------|        PM-|       PM------|
  E  E   E   E  S S S S S S E   E  E   E   E  S S E S S E
|-----------------------------|----------------------------||
|-----------------------------|---------------------------o||
|-----------------------------|----------------------------||
|-----------------------------|----------------------------||
|-7-(2)-(2)-(2)-8-7-5-8-7-5-8-|-7-(2)-(2)-(2)-----5-----8-o||
|----0---0---0----------------|----0---0---0--3-3-3-6-6-6--||


     Interlude
  &
      E5        N.C.
 4/4
                ~~~~~~~~
      H..       E   +H.      E E
|-||--------------|--------------|
|-||o-------------|--------------|
|-||--------------|--------------|
|-||--2-----------|--------------|
|-||o-2-----------|--------------|
|-||--0---------6-|-(6)------0-1-|


                                     E5        N.C.
  ~~~~~~~~~      ~~~~~~~~~                     ~~~~~~~~
  H    +E   E E  E    +H.      E E   H..       E   +H.      E E
|-------------------|--------------|-------------|--------------|
|-------------------|--------------|-------------|--------------|
|-------------------|--------------|-------------|--------------|
|-------------------|--------------|-2-----------|--------------|
|----------/5-4-[3]-|-(3)----------|-2-----------|--------------|
|-2----(2)----------|----------2-3-|-0---------6-|-(6)------0-1-|


  1.                                       2.
                                                         C5
                                                            3/4
  ~~~~~~~~~     ~~~~~~~~          ~~~~~~~~~~~~~~~~~~
  H    +E   E E E   +Q.    E +E   Q.       H    +E   E E E   E E E E E E
|-----------------|---------------------||-----------------|--------------|
|-----------------|--------------------o||-----------------|--------------|
|-----------------|---------------------||-----------------|--------------|
|-----------------|---------------------||---------------5-|---5---5---5--|
|----------/5-4-3-|-(3)---/6-(6)-------o||----------/5-4-3-|---3---3---3--|
|-2----(2)--------|--------------[3]----||-2----(2)--------|--------------|


 Guitar Solo
  N.C.
 4/4
  Gtr III
    ~~~
    H     Q   +E        S  +S        +E   E  E  +E      +E   E  E  E
|---------------------------------|---------19-(19)b20r(19)-17----17-|
|----------------------20-(20)b22r|=(20)-17--------------------20----|
|--------17--(17)b17.5------------|----------------------------------|
|-/19-----------------------------|----------------------------------|
|---------------------------------|----------------------------------|
|---------------------------------|----------------------------------|


                          ~~~~~~~~
           |--3--|                 |--3--|  |------6-------|
   +E      S  S  S  S     E.  +E   S  S  S  S  S  S  S  S  S
|-(17)b18-17-------20b22-20--(20)-17-19-17-------20-17-------|
|------------20-17-------------------------20-17-------20-17-|
|------------------------------------------------------------|
|------------------------------------------------------------|
|------------------------------------------------------------|
|------------------------------------------------------------|


                                                 ~~~~
   |------6-------|  |------6-------|  |--3--|
   S  S  S  S  S  S  S  S  S  S  S  S  S  S  S  +Q.
|-22-17-------20-17-------19-17-----------------------|
|-------20-17-------20-17-------20-17-----------------|
|-------------------------------------19-17-----------|
|-------------------------------------------19-(19)---|
|-----------------------------------------------------|
|-----------------------------------------------------|


   |------6-------|  |------6-------|  |------6-------|  |------6-------|
   S  S  S  S  S  S  S  S  S  S  S  S  S  S  S  S  S  S  S  S  S  S  S  S
|--------------------------------------------------------------------------|
|--------------------------------------------------------------------------|
|-------------------------------------19-18-17-----------------------------|
|----------------------------19-18-17----------19-18-17----------19-18-17--|
|----------17-16-15-19-18-17----------------------------19-18-17-----------|
|-17-16-15-----------------------------------------------------------------|


   |------6-------|  |------6-------|  |------6-------|  |------6-------|
   S  S  S  S  S  S  S  S  S  S  S  S  S  S  S  S  S  S  S  S  S  S  S  S
|----------------------------------------------------------------22-21-20-|
|-------------------22-21-20----------------------------22-21-20----------|
|----------21-20-19----------21-20-19----------21-20-19-------------------|
|-21-20-19----------------------------21-20-19----------------------------|
|-------------------------------------------------------------------------|
|-------------------------------------------------------------------------|


   |------6-------|  |------6-------|  |---------------13:8----------------|
   S  S  S  S  S  S  S  S  S  S  S  S  S  S  S  S  S  S  S  S  S  S  S  S  S
|-23-22-20-23-22-20-23-22-20-23-22-20-23-22-20-23-22-20-21-19-17----------20-|
|----------------------------------------------------------------20-19-17----|
|----------------------------------------------------------------------------|
|----------------------------------------------------------------------------|
|----------------------------------------------------------------------------|
|----------------------------------------------------------------------------|


   |---------------13:8----------------|  |---------------13:8----------------|
   S  S  S  S  S  S  S  S  S  S  S  S  S  S  S  S  S  S  S  S  S  S  S  S  S  S
|-19-17----------20-19-17----------20-19-17-------------------------------------|
|-------20-19-17----------20-19-17----------20-19-17-20-19-17-------------------|
|-------------------------------------------------------------20-19-17-20-17----|
|----------------------------------------------------------------------------19-|
|-------------------------------------------------------------------------------|
|-------------------------------------------------------------------------------|


   ~~~                                 ~~~~
                            |----3-----|
   Q.    +E     S  S  S  S  E  E      +E
|------------------------------------------|
|------------------------------------------|
|-17----(17)\-----------17-19-21b24==(21)--|
|-----------------17-19--------------------|
|-------------/19--------------------------|
|------------------------------------------|


    ~~~~~~
                                   |-----3-----|
   +E      E  S  S  S  S  Q       +E   a  +E   E
|------------------20-22-24b27===(24)-24r(24)-23-|
|------------20-22-------------------------------|
|-(21)r\-/21-------------------------------------|
|------------------------------------------------|
|------------------------------------------------|
|------------------------------------------------|


            ~~                                        T     T
   |--3--|                                         |-----5-----|
   E  E  E  Q   +S   T  T  T  T  T  T  T  T  T  T  T  T  T  T  T
|-22-20-22---------------------------------------------------------|
|----------22--(22)----------15-15-------------15h17-20p17-20p17p==|
|-------------------------17-------17-------17---------------------|
|-------------------19-19-------------19-19------------------------|
|------------------------------------------------------------------|
|------------------------------------------------------------------|


                                          T                     ~~
                                       |-----5-----|
   S  S  S  T  T  S  T  T  T  T  T  T  T  T  T  T  T  T  T  S   Q
|------------------------------------------------------------------|
|-15-------------15-------------15h17h20-23p20p17p15---------------|
|----17-------17----17-------17----------------------17------------|
|-------19-19----------19-19----------------------------19---------|
|----------------------------------------------------------19\-----|
|--------------------------------------------------------------15--|


   |------6-------|  |------6-------|  |------6-------|  |------6-------|
   S  S  S  S  S  S  S  S  S  S  S  S  S  S  S  S  S  S  S  S  S  S  S  S
|-------------------------------------------------------------------------|
|-------------------------------------------------------------------------|
|-------------------------------------------------------------------------|
|----------------------------------------14-14-16-16-14----14-16-16-14-16-|
|----14-14-15-17-15----14-15-17-14-14-17----------------17----------------|
|-17----------------17----------------------------------------------------|


   |------6-------|  |------6-------|  |--------7--------|  |--------7--------|
   S  S  S  S  S  S  S  S  S  S  S  S  S  S  S  S  S  S  S  S  S  S  S  S  S  S
|-------------------------------------------------------------------------14-14-|
|----------------------------------------14-15-17-15-14-------15-15-14-17-------|
|----14-16-17-16-14----14-16-16-14-16-17----------------17-17-------------------|
|-17----------------17----------------------------------------------------------|
|-------------------------------------------------------------------------------|
|-------------------------------------------------------------------------------|


   |--------7--------|  |--------7--------|  |--------7--------|  |------6-------|
   S  S  S  S  S  S  S  S  S  S  S  S  S  S  S  S  S  S  S  S  S  S  S  S  S  S  S
|-15-17-15-14----14-15-17-15-14-17-19-17-15----15-17-19-17-15-19-22-19-17-19-22-17-|
|-------------17----------------------------19-------------------------------------|
|----------------------------------------------------------------------------------|
|----------------------------------------------------------------------------------|
|----------------------------------------------------------------------------------|
|----------------------------------------------------------------------------------|


   |------6-------|  |------6-------|  |---------------13:8----------------|
   S  S  S  S  S  S  S  S  S  S  S  S  S  S  S  S  S  S  S  S  S  S  S  S  S
|-19-22-19-17-19-22-19-17-19-22-19-17-19-23-19-17-19-23-19-17-19-23-19-17-19-|
|----------------------------------------------------------------------------|
|----------------------------------------------------------------------------|
|----------------------------------------------------------------------------|
|----------------------------------------------------------------------------|
|----------------------------------------------------------------------------|


   |------6-------|  |------6-------|  |------6-------|  |------6-------|
   S  S  S  S  S  S  S  S  S  S  S  S  S  S  S  S  S  S  S  S  S  S  S  S
|-24-19-17-19-24-19-17-19-24-19-17-19-24-19-17-19-24-19-17-19-24-19-17-19-|
|-------------------------------------------------------------------------|
|-------------------------------------------------------------------------|
|-------------------------------------------------------------------------|
|-------------------------------------------------------------------------|
|-------------------------------------------------------------------------|


   |------6-------|  |------6-------|  |------6-------|  |------6-------|
   S  S  S  S  S  S  S  S  S  S  S  S  S  S  S  S  S  S  S  S  S  S  S  S
|-22-19-18-19-22-19-18-19-22-19-18-19-22-19-18-19-22-19-18-19-22-19-17S16S|
|-------------------------------------------------------------------------|
|-------------------------------------------------------------------------|
|-------------------------------------------------------------------------|
|-------------------------------------------------------------------------|
|-------------------------------------------------------------------------|


   |---------------13:8----------------|  |--------7--------|  |---------7---------|
   S  S  S  S  S  S  S  S  S  S  S  S  S  S  S  S  S  S  S  S  S  S  S   S  S  S   S
|-15----15-16-19-16-15----15-16-19-16-15----15-16-19-16-15----16-19-16\-14-14-15-\12---|
|----17----------------17----------------17----------------17--------------------------|
|--------------------------------------------------------------------------------------|
|--------------------------------------------------------------------------------------|
|--------------------------------------------------------------------------------------|
|--------------------------------------------------------------------------------------|


   |--------7--------|  |--------7--------|  |--------7--------|  |--------7---------|
   S  S  S  S  S  S  S  S  S  S  S  S  S  S  S  S  S  S  S  S  S  S  S  S  S  S  S  +S
|----12-14-15-14-12----12-14-15-12-----------------------------------------------------------|
|-15----------------15-------------15-15-13----12-14-15-14-12----14-15-14-12-----------------|
|-------------------------------------------15----------------12-------------15-12-(12)b12.5-|
|--------------------------------------------------------------------------------------------|
|--------------------------------------------------------------------------------------------|
|--------------------------------------------------------------------------------------------|


   ~~~~~~~~
   Q   +E.   S   S     +S   S  S  S  S  S  S
|--------------------------------------------|
|---------------14b15-(14)-14p12-------------|
|----------(12)-14b15-(14)-14p12-14p12-------|
|-14--(14)-(12)------------------------14-12-|
|--------------------------------------------|
|--------------------------------------------|


                                                     ~~
                          |--3--|  |------6-------|
   S     +S   S  S  E     S  S  S  S  S  S  S  S  S  Q
|------------12----------12-------17-15-----------------|
|---------------12-15b17----15p12-------17-15-----------|
|-14b16-(14)----------------------------------17-16-15--|
|-------------------------------------------------------|
|-------------------------------------------------------|
|-------------------------------------------------------|


   |------6-------|  |------6-------|  |------6-------|  |------6-------|
   S  S  S  S  S  S  S  S  S  S  S  S  S  S  S  S  S  S  S  S  S  S  S  S
|-15p14p12----12-14-15p14p12-17p15p14----14-15-17p15p14-19p17p15----15-17-|
|----------15-------------------------17-------------------------19-------|
|-------------------------------------------------------------------------|
|-------------------------------------------------------------------------|
|-------------------------------------------------------------------------|
|-------------------------------------------------------------------------|


  Gtr III
   |------6-------|  |------6-------|  |------6-------|  |------6-------|
   S  S  S  S  S  S  S  S  S  S  S  S  S  S  S  S  S  S  S  S  S  S  S  S
|-19p17p15-20p19p17----17-19-20p19p17-22p20p19----19-20-22p20p19----19-20-|
|-------------------20-------------------------22----------------22-------|
|-------------------------------------------------------------------------|
|-------------------------------------------------------------------------|
|-------------------------------------------------------------------------|
|-------------------------------------------------------------------------|
|
| Gtr I
|  W
|-------------------------------------------------------------------------|
|-------------------------------------------------------------------------|
|-------------------------------------------------------------------------|
|-------------------------------------------------------------------------|
|-------------------------------------------------------------------------|
|-------------------------------------------------------------------------|


  E5                     G6
 7/4
              ~~~~
   H         +Q    +Q       H.
|-22b24=====(22)--(22)r\----------|
|---------------------------------|
|---------------------------------|
|---------------------------------|
|---------------------------------|
|---------------------------------|
|
|  H..                   E +H.
|------------------------0-(0)----|
|--5---------------------0-(0)----|
|--4---------------------4-(4)----|
|--2---------------------5-(5)----|
|--2---------------------5-(5)----|
|--0---------------------3-(3)----|


                                                        D.S.S. al Dbl. Coda
  F#11      Fmaj7+11     Esus2/B   Gsus2/D        F#sus2/C#  Fsus2/C   Csus2
  Gtr I
  H..       E +H.        H..        E  +H.         H..        E E  E E E E E
|-0---------0-(0)------|-7---------10-(10)------|--9----------8----8---3---3-||
|-0---------0-(0)------|-7---------10-(10)------|--9----------8----8---3---3-||
|-3---------2-(2)------|-9---------12-(12)------|-11---------10---10---5---5-||
|-4---------3-(3)------|-9---------12-(12)------|-11---------10---10---5---5-||
|-4---------3-(3)------|-7---------10-(10)------|--9----------8----8---3---3-||
|-2---------1-(1)------|-7---------10-(10)------|--9----------8----8---------||


    &&
    E5            N.C.               G5     E5
   4/4
      PM--|   PM  ~~~~~~~~   ~~~~~~
    E E E E E E E E   +Q   E E +E  E Q   4x W
||------------------|--------------------||-0----*|
||o-----------------|-------------------o||-0----*|
||------------------|--------------------||-x----*|
||------------------|--------------------||-2----*|
||o-2-------7---7---|------7-------7-5--o||-2----*|
||--0-0-0-0---0---6-|-(6)----5-(5)---3---||-0----*|

---------------------------------------------------------------------------

2. THIS DYING SOUL
Tuning - B,E,A,D,G,B,E

Intro
  Q=143
  N.C.        B5
 3/4         4/4
  Gtrs I, II
    ~    ~
  E Q  E Q    W          +W           +W             W
|-----------|----------|------------|------------|----------|
|-----------|----------|------------|------------|----------|
|-----------|----------|------------|------------|----------|
|-----------|----------|------------|------------|----------|
|-----------|----------|------------|------------|--[2]-----|
|-4----4----|-2--------|-(2)--------|-(2)--------|--(2)-----|
|---3----2--|-0--------|-(0)--------|-(0)--------|-([0])----|
                                                    +W


                \0.5/  \0.5/  \0.5/  \0.5/  \0.5/  \0.5/  \0.5/  \0.5/
  +W           +E     +E     +E     +E     +E     +E     +E     +E
|------------|---------------------------------------------------------|
|------------|---------------------------------------------------------|
|------------|---------------------------------------------------------|
|------------|---------------------------------------------------------|
|-(2)--------|-(2)----(2)----(2)----(2)----(2)----(2)----(2)----(2)----|
|------------|---------------------------------------------------------|
|------------|---------------------------------------------------------|


   \0.5/  \0.5/  \0.5/  \0.5/  \0.5/
  +E     +E     +E     +E     +H          W
|---------------------------------------|-------|
|---------------------------------------|-------|
|---------------------------------------|-------|
|---------------------------------------|-------|
|-(2)----(2)----(2)----(2)----(2)-------|-x\----|
|---------------------------------------|-x\----|
|---------------------------------------|-x\----|


    PM------------------|      PM------------------|
    S S S S E S S +S  S E Q    S S S S E S S +S  S E Q
||---------------------------|--------------------------|
||---------------------------|--------------------------|
||o--------------------------|--------------------------|
||---------------------------|--------------------------|
||o--------------------------|--------------------------|
||---------------------------|--------------------------|
||--0-0-0-0-0-0-0-(0)-0-0----|-0-0-0-0-0-0-0-(0)-0-0----|


                                                   N.C.
  PM------------------|      PM------------------|
  S S S S E S S +S  S E Q    S S S S E S S +S  S E Q
|--------------------------|---------------------------||
|--------------------------|---------------------------||
|--------------------------|-----------------------5--o||
|--------------------------|-----------------------4---||
|--------------------------|--------------------------o||
|--------------------------|---------------------------||
|-0-0-0-0-0-0-0-(0)-0-0----|-0-0-0-0-0-0-0-(0)-0-0-----||


    B5
    PM------------------|
    S S S S E S S +S  S E Q
||---------------------------|
||---------------------------|
||o--------------------------|
||---------------------------|
||o--------------------------|
||---------------------------|
||--0-0-0-0-0-0-0-(0)-0-0----|


                        N.C. B5
  PM------------------|      PM------------------|
  S S S S E S S +S  S E Q    S S S S E S S +S  S E Q
|--------------------------|----------------------------|
|--------------------------|----------------------------|
|-----------------------5--|----------------------------|
|-----------------------4--|----------------------------|
|--------------------------|----------------------------|
|--------------------------|----------------------------|
|-0-0-0-0-0-0-0-(0)-0-0----|-0-0-0-0-0-0-0-(0)-0-0------|


  1.                            2.
 7/8                           5/4
  PM----------------------------------------------------|
                                              |-3-| |-3-|
  S S S S E S S S S S S S S     S S S S E S S q q q E E E
|----------------------------||---------------------------||
|----------------------------||---------------------------||
|---------------------------o||---------------------------||
|----------------------------||---------------------------||
|---------------------------o||---------------------------||
|----------------------------||---------------3-4-5-------||
|-0-0-0-0-0-0-0-3-2-0-3-2-0--||-0-0-0-0-0-0-0-1-2-3-1-0-0-||


 Guitar Solo
  B5     C#5       D5C#5
 4/4
  Gtr III
   ~~~~~~                                 ~~~
                           |-----3-----|
   W                      +Q     +Q    Q +H
|----------------------|------------------------|
|-12b14================|=(12)r==(12)---9-(9)----|
|--x-------------------|------------------------|
|----------------------|------------------------|
|----------------------|------------------------|
|----------------------|------------------------|
|----------------------|------------------------|
|
| Gtrs I, II
|                PM
|  E     E E E E E E E     E  E      Q    H
|----------------------|------------------------|
|----------------------|------------------------|
|----------------------|------------------------|
|----------------------|------------------------|
|----------------------|------------------------|
|--2-----4---4---4-5-4-|------4-----------------|
|--0-----2---2---2-3-2-|------2-----------------|


  B5C#5                   D5     C#5
                                       ~~~
                 |------3------|
  E  E  E  E  a  Q    a Q    a Q       W
|----------------------------------|---------------|
|---\9-10-12-12s10---12s9---12s7---|-/18-----------|
|----------------------------------|---------------|
|----------------------------------|---------------|
|----------------------------------|---------------|
|----------------------------------|---------------|
|----------------------------------|---------------|
|
|                  PM
| E  E  E  E     E E      E      E     E E Q  H
|----------------------------------|---------------|
|----------------------------------|---------------|
|----------------------------------|---------------|
|----------------------------------|---------------|
|----------------------------------|---------------|
|-2--4-----4-------4------5------4-|-----4---------|
|-0--2-----2-------2------3------2-|-----2---------|


  B5      C#5                                          D5       C#5
              T                 T     T                 T
  |------6-------|  |------6-------|  |------6-------|  |------6-------|
  S  S  S  S  S  S  S  S  S  S  S  S  S  S  S  S  S  S  S  S  S  S  S  S
|---16h17h19h21p19p17p16h17h19h22p19h22p19p17p16h17h19h21p19p17p16h17h19h|
|------------------------------------------------------------------------|
|------------------------------------------------------------------------|
|------------------------------------------------------------------------|
|------------------------------------------------------------------------|
|------------------------------------------------------------------------|
|------------------------------------------------------------------------|
|
|                                              PM
| E        E        E        E        E        E        E        E
|------------------------------------------------------------------------|
|------------------------------------------------------------------------|
|------------------------------------------------------------------------|
|------------------------------------------------------------------------|
|------------------------------------------------------------------------|
|-2--------4-----------------4-----------------4--------5--------4-------|
|-0--------2-----------------2-----------------2--------3--------2-------|


   T     T                           T                   T     T
   |--3--|  |-------5-------|  |------5------|  |--3--|  |------6-------|
   S  S  S  S  S  S    +S   S  S  S  S    S  S  S  S  S  S  S  S  S  S  S
|-22p19h22p19p17p16---(16)-13h14h16h17p==16p14p13h14h16h17p16h17p16p14p13-|
|-------------------------------------------------------------------------|
|-------------------------------------------------------------------------|
|-------------------------------------------------------------------------|
|-------------------------------------------------------------------------|
|-------------------------------------------------------------------------|
|-------------------------------------------------------------------------|
|
|  E        E       Q                  H
|-------------------------------------------------------------------------|
|-------------------------------------------------------------------------|
|-------------------------------------------------------------------------|
|-------------------------------------------------------------------------|
|-------------------------------------------------------------------------|
|-----------4-------------------------------------------------------------|
|-----------2-------------------------------------------------------------|


  B5       C#5                                     D5       C#5
      T                 T     T                           T     T
   |------6-------|  |------6-------|  |----6----|  |------6------|
   S  S  S  S  S  S  S  S  S  S  S  S  S E S  S  S  S  S  S  S  S S
|-16h17p16p14p13h14h16h17p16h17p16p14p13-x-9h10h13h16p13h16p13p10p9h|
|-------------------------------------------------------------------|
|-------------------------------------------------------------------|
|-------------------------------------------------------------------|
|-------------------------------------------------------------------|
|-------------------------------------------------------------------|
|-------------------------------------------------------------------|
|
|                                          PM
|  E        E        E        E        E   E        E        E
|-------------------------------------------------------------------|
|-------------------------------------------------------------------|
|-------------------------------------------------------------------|
|-------------------------------------------------------------------|
|-------------------------------------------------------------------|
|--2--------4-----------------4------------4--------5--------4------|
|--0--------2-----------------2------------2--------3--------2------|


                                      T                T     T
   |------6-------|  |------6------|  |------6------|  |------6------|
   S  S  S  S  S  S  S S  S  S  S  S  S  S  S S  S  S  S  S  S  S  S S
|-10h13h17p13h17p13p10p9h10h13h19p13h19p13p10p9h10h13h21p13h21p13p10p9--||
|-----------------------------------------------------------------------||
|-----------------------------------------------------------------------||
|-----------------------------------------------------------------------||
|-----------------------------------------------------------------------||
|-----------------------------------------------------------------------||
|-----------------------------------------------------------------------||
|
|  E        E        Q                H
|-----------------------------------------------------------------------||
|-----------------------------------------------------------------------||
|-----------------------------------------------------------------------||
|-----------------------------------------------------------------------||
|-----------------------------------------------------------------------||
|-----------4-----------------------------------------------------------||
|-----------2-----------------------------------------------------------||


 Guitar Break
  N.C.(B5)
 3/4
  Gtr I
               ~~~~~~~~~            ~~
      |--3--|                                |--3--|
   E  S  S  S  E  E  E   E    E  E  Q    E   S  S  S
|--------------------------|-------------------------|
|-12h13p12----12-12-12-----|-12-13-12---12h=13p12----|
|----------14-----------14-|----------------------14-|
|--------------------------|-------------------------|
|--------------------------|-------------------------|
|--------------------------|-------------------------|
|--------------------------|-------------------------|
|
| Gtr II
|              ~~~~~~~~~            ~~
|     |--3--|                                |--3--|
|  E  S  S  S  E  E  E   E    E  E  Q    E   S  S  S
|--------------------------|-------------------------|
|--------------------------|-------------------------|
|--4h=5p=4-----4--4--4-----|--4--5--4----4h==5p=4----|
|-----------7------------7-|-----------------------7-|
|--------------------------|-------------------------|
|--------------------------|-------------------------|
|--------------------------|-------------------------|
|
| Gtr III
|  E  E        E  E +E   E    E  E  E E +E   E
|--------------------------|-------------------------|
|--------------------------|-------------------------|
|-----------------4-(4)--4-|--5--4----4-(4)--4-------|
|--------------------------|-------------------------|
|--0h=2--------2-----------|--------2----------------|
|--------------------------|-------------------------|
|--------------------------|-------------------------|


         ~~                  ~~~
   E  E  Q    E   E    E  E  Q.      +E
|-------------------|----------------------|
|-12s19-19---19--17-|-19-20-19------(19)\--|
|-------------------|----------------------|
|-------------------|----------------------|
|-------------------|----------------------|
|-------------------|----------------------|
|-------------------|----------------------|
|
|        ~~                  ~~~
|  E  E  Q    E   E    E  E  Q.      +E
|-------------------|----------------------|
|-------------------|----------------------|
|--4s11-11---11---9-|-11-12-11------(11)\--|
|-------------------|----------------------|
|-------------------|----------------------|
|-------------------|----------------------|
|-------------------|----------------------|
|
|  E  E  E E +E   E    E  E  E  E Q
|-------------------|----------------------|
|-------------------|----------------------|
|----------4-(4)--4-|--5--4----------------|
|-------------------|-----------5-4--------|
|--0h=2--2----------|--------2-------------|
|-------------------|----------------------|
|-------------------|----------------------|


  B5/E
               ~~~~~~~~~            ~~
      |--3--|
   E  S  S  S  E  E  E   E    E  E  Q     E   E
|--------------------------|--------------------|
|-12h13p12----12-12-12-----|-12-13-12---/19--20-|
|----------14-----------14-|--------------------|
|--------------------------|--------------------|
|--------------------------|--------------------|
|--------------------------|--------------------|
|--------------------------|--------------------|
|
|              ~~~~~~~~~            ~~
|     |--3--|
|  E  S  S  S  E  E  E   E    E  E  Q     E   E
|--------------------------|--------------------|
|--------------------------|------------/15--17-|
|--4h=5p=4-----4--4--4-----|--4--5--4-----------|
|-----------7------------7-|--------------------|
|--------------------------|--------------------|
|--------------------------|--------------------|
|--------------------------|--------------------|
|
|  Q           E  E +E   E    E  E  E E  +E   E
|--------------------------|--------------------|
|--------------------------|--------------------|
|-----------------4-(4)--4-|--5--4----4--(4)--4-|
|--------------------------|--------------------|
|--------------------------|--------------------|
|--0-----------0-----------|--------0-----------|
|--------------------------|--------------------|


  G                      B5/A
   ~~                     ~~~~~~~~~~~~
               |--3--|
   H       E   S  S  S    H       +E   +E
|----------------------|--------------------|
|-22------20--19h20p19-|--------------------|
|----------------------|-21------(21)-(21)\-|
|----------------------|--------------------|
|----------------------|--------------------|
|----------------------|--------------------|
|----------------------|--------------------|
|
|  ~~                     ~~~~~~~~~~~~
|              |--3--|
|  H       E   S  S  S    H       +E   +E
|----------------------|--------------------|
|-19------17--15h17p15-|--------------------|
|----------------------|--------------------|
|----------------------|-19------(19)-(19)\-|
|----------------------|--------------------|
|----------------------|--------------------|
|----------------------|--------------------|
|
|  Q  E E +E   E          Q  E E  +E    E
|----------------------|--------------------|
|----------------------|--------------------|
|-------4-(4)--4-------|-------4--(4)---4---|
|----------------------|--------------------|
|----------------------|--0--0--------------|
|--3--3----------------|--------------------|
|----------------------|--------------------|


  N.C.(B5)
               ~~~~~~~~~
      |--3--|
   E  S  S  S  E  E  E  E    S S  S S  S S  S S  S  S  S S
|-------------------------|--------------------------------|
|-12h13p12----12-12-12--0-|-12-0-13-0-12-0-10-0-12--0-13-0-|
|----------14-------------|--------------------------------|
|-------------------------|--------------------------------|
|-------------------------|--------------------------------|
|-------------------------|--------------------------------|
|-------------------------|--------------------------------|
|
|              ~~~~~~~~~
|     |--3--|
|  E  S  S  S  E  E  E  E    S S  S S  S S  S S  S  S  S S
|-------------------------|--------------------------------|
|-----------------------0-|--7-0--8-0--7-0--5-0--7--0--8-0-|
|--4h=5p=4-----4--4--4----|--------------------------------|
|-----------7-------------|--------------------------------|
|-------------------------|--------------------------------|
|-------------------------|--------------------------------|
|-------------------------|--------------------------------|
|
|  E  E        E  E +E  E    E    E    E    E   +E     E
|-------------------------|--------------------------------|
|-------------------------|--------------------------------|
|-----------------4-(4)-4-|--5----4---------4---(4)----4---|
|-------------------------|--------------------------------|
|--0h=2--------2----------|------------2-------------------|
|-------------------------|--------------------------------|
|-------------------------|--------------------------------|


               ~~~                        ~~
      |--3--|                    |--3--|
   E  S  S  S  E  E  E   E    E  S  S  S  Q   S  S  S  S
|--------------------------|--------------------------20-|
|-12h13p12----12s19-19-----|-19h20p19----19--19-20-22----|
|----------14-----------21-|----------21-----------------|
|--------------------------|-----------------------------|
|--------------------------|-----------------------------|
|--------------------------|-----------------------------|
|--------------------------|-----------------------------|
|
|              ~~~                        ~~
|     |--3--|                    |--3--|
|  E  S  S  S  E  E  E   E    E  S  S  S  Q   S  S  S  S
|--------------------------|--------------------------14-|
|--7h=8p=7-----7s12-12-----|-12h13p12----12--12-13-15----|
|-----------9-----------14-|----------14-----------------|
|--------------------------|-----------------------------|
|--------------------------|-----------------------------|
|--------------------------|-----------------------------|
|--------------------------|-----------------------------|
|
|  E  E        E  E +E   E    Q           Q   Q
|--------------------------|-----------------------------|
|--------------------------|-----------------------------|
|-----------------4-(4)--4-|-----------------------------|
|--------------------------|--5-----------5---5----------|
|--0h=2--------2-----------|-----------------------------|
|--------------------------|-----------------------------|
|--------------------------|-----------------------------|


  B5/F#
   |--3--|                                   |--3--|
   S  S  S  S  S  S  S  S  S  S   S  S  S    S  S  S  S  S  S  S  S  S  S   S  S  S
|-19h20p19----19-----------------19-20-22-|-----------------------------------------|
|----------22----22-20-19-20-22-----------|-19h20p19----19-----------------19-20-22-|
|-----------------------------------------|----------21----21-19-17-19-21-----------|
|-----------------------------------------|-----------------------------------------|
|-----------------------------------------|-----------------------------------------|
|-----------------------------------------|-----------------------------------------|
|-----------------------------------------|-----------------------------------------|
|
|  |--3--|                                   |--3--|
|  S  S  S  S  S  S  S  S  S  S   S  S  S    S  S  S  S  S  S  S  S  S  S   S  S  S
|-12h14p12----12-----------------12-14-15-|-----------------------------------------|
|----------15----15-13-12-13-15-----------|-12h13p12----12-----------------12-13-15-|
|-----------------------------------------|----------14----14-12-11-12-14-----------|
|-----------------------------------------|-----------------------------------------|
|-----------------------------------------|-----------------------------------------|
|-----------------------------------------|-----------------------------------------|
|-----------------------------------------|-----------------------------------------|
|
|  Q              E     E    +E      E       E        E     E     E    +E      E
|-----------------------------------------|-----------------------------------------|
|-----------------------------------------|-----------------------------------------|
|-----------------------4----(4)-----4----|--5--------4-----------4----(4)-----4----|
|-----------------------------------------|-----------------------------------------|
|-----------------------------------------|-----------------------------------------|
|--2--------------2-----------------------|-----------------2-----------------------|
|-----------------------------------------|-----------------------------------------|


  E5                                        N.C.
   |--3--|
   S  S  S  S  S  S  S  S  S  S   S  S  S    S  S  S  S  S  S  S  S  S  S  S  S
|-----------------------------------------|----------17-19-20----19-20-19-20-22-||
|-----------------------------------------|-17-19-20----------22----------------||
|-16h17p16----16-----------------16-17-19-|-------------------------------------||
|----------19----19-17-16-17-19-----------|-------------------------------------||
|-----------------------------------------|-------------------------------------||
|-----------------------------------------|-------------------------------------||
|-----------------------------------------|-------------------------------------||
|
|  |--3--|
|  S  S  S  S  S  S  S  S  S  S   S  S  S    S  S  S  S  S  S  S  S  S  S  S  S
|-----------------------------------------|----------------------------------17-||
|-----------------------------------------|----------17-19-20-17-19-20-19-20----||
|-----------------------------------------|-16-17-19----------------------------||
|-16h17p16----16-----------------16-17-19-|-------------------------------------||
|----------19----19-17-15-17-19-----------|-------------------------------------||
|-----------------------------------------|-------------------------------------||
|-----------------------------------------|-------------------------------------||
|
|  Q              E     E    +E      E       Q           Q           Q
|-----------------------------------------|-------------------------------------||
|-----------------------------------------|-------------------------------------||
|-----------------------4----(4)-----4----|-------------------------------------||
|-----------------------------------------|-------------------------------------||
|-----------------------------------------|-------------------------------------||
|--0--------------0-----------------------|-------------------------------------||
|-----------------------------------------|--3-----------1-----------0----------||


 Keyboard solo
  E5                         C#5
 5/4
  Gtr I
   ~~~~~~~~~~~~
   H       +E   +E   H       W
|-24------(24)-(24)\-------|-----------------|
|--------------------------|-----------------|
|--------------------------|-----------------|
|--------------------------|-----------------|
|--------------------------|-----------------|
|--------------------------|-----------------|
|--------------------------|-----------------|
|
| Gtr II
|  ~~~~~~~~~~~~
|  H       +E   +E   H       W
|-19------(19)-(19)\-------|-----------------|
|--------------------------|-----------------|
|--------------------------|-----------------|
|--------------------------|-----------------|
|--------------------------|-----------------|
|--------------------------|-----------------|
|--------------------------|-----------------|
|
| Gtr III
|                PM
|  Q.   Q        E   Q  Q    Q.   Q.   Q  Q
|--------------------0--0--|-----------------|
|--------------------0--0--|-----------------|
|--------------------4--4--|-----------------|
|--2----2------------2--2--|-----------------|
|--2----2--------2---------|-----------------|
|--0----0--------0---------|-----------------|
|--------------------------|-2----2----2--2--|


  C5                F#5
  W                 W
|-----------------|-------------------|
|-----------------|-------------------|
|-----------------|-------------------|
|-----------------|-------------------|
|-----------------|-------------------|
|-----------------|-------------------|
|-----------------|-------------------|
|
| W                 W
|-----------------|-------------------|
|-----------------|-------------------|
|-----------------|-------------------|
|-----------------|-------------------|
|-----------------|-------------------|
|-----------------|-------------------|
|-----------------|-------------------|
|
| Q.   Q  E Q  Q    Q.   Q  E Q  Q
|-----------------|-------------------|
|-----------------|-------------------|
|-----------------|-------------------|
|-----------------|-------------------|
|-3----3--3-3--3--|-------------------|
|-3----3--3-3--3--|-2----2--0-2--3----|
|-1----1--1-1--1--|-------------------|


  E5                C5/C#             C5                A5           G5F#F5
                                                       6/4
  Gtr III
          PM                PM                                       PM--|
                                                                     |-3-|
  Q.   Q  E Q  Q    Q.   Q  E Q  Q    Q.   Q  E Q  Q    Q.   Q.   Q  Q Q Q
|-----------0--0--|-----------------|-----------------|---------------------|
|-----------0--0--|-----------------|-----------------|---------------------|
|-----------4--4--|-----------------|-----------------|-2----2----2---------|
|-2----2----2--2--|-5----5----5--5--|-----------------|-2----2----2---------|
|-2----2--2-------|-4----4--4-4--4--|-3----3--3-3--3--|-0----0----0--5-4-3--|
|-0----0--0-------|-----------------|-3----3--3-3--3--|--------------3-2-1--|
|-----------------|-----------------|-1----1--1-1--1--|---------------------|


  E5                C#5               C5                F#5
 5/4
          PM
  Q.   Q  E Q  Q    Q.   Q.   Q  Q    Q.   Q  E Q  Q    Q.   Q  E Q  Q
|-----------0--0--|-----------------|-----------------|-------------------|
|-----------0--0--|-----------------|-----------------|-------------------|
|-----------4--4--|-----------------|-----------------|-------------------|
|-2----2----2--2--|-----------------|-----------------|-------------------|
|-2----2--2-------|-----------------|-3----3--3-3--3--|-------------------|
|-0----0--0-------|-----------------|-3----3--3-3--3--|-2----2--0-2--3----|
|-----------------|-2----2----2--2--|-1----1--1-1--1--|-------------------|


  E5                C5/C#             C5                A5
                                                       6/4
          PM                PM                                  PM
  Q.   Q  E Q  Q    Q.   Q  E Q  Q    Q.   Q  E Q  Q    Q.   Q  E Q  Q  Q
|-----------0--0--|-----------------|-----------------|--------------------||
|-----------0--0--|-----------------|-----------------|--------------------||
|-----------4--4--|-----------------|-----------0-----|-2----2----2--2--2--||
|-2----2----2--2--|-5----5----5--5--|-----------x-----|-2----2--2-2--2--2--||
|-2----2--2-------|-4----4--4-4--4--|-3----3--3-3--3--|-0----0--0-0--0--0--||
|-0----0--0-------|-----------------|-3----3--3-3--3--|--------------------||
|-----------------|-----------------|-1----1--1-1--1--|--------------------||


   Pre-Verse
    N.C.(B5)
   3/4
    Gtrs I, II
        PM~~~~~~       PM~~~~~~       PM~~~~~~       PM    ~
    E E E E +Q     E E E E +Q     E E E E +Q     E E E   E Q
||---------------|--------------|--------------|---------------|
||---------------|--------------|--------------|---------------|
||o--------------|--------------|--------------|---------------|
||---------------|--------------|--------------|---------------|
||o--------------|--------------|--------------|-------/10-9---|
||--5h7---7-(7)--|-8-7---7-(7)--|-5h7---7-(7)--|-8-7-----------|
||------0--------|-----0--------|-----0--------|-----0---------|


      PM~~~~~~       PM~~~~~~       PM~~~~~~       PM   ~
  E E E E +Q     E E E E +Q     E E E E +Q     E E E  E Q
|--------------|--------------|--------------|--------------||
|--------------|--------------|--------------|--------------||
|--------------|--------------|--------------|-------------o||
|--------------|--------------|--------------|--------------||
|--------------|--------------|--------------|-------------o||
|-5h7---7-(7)--|-8-7---7-(7)--|-5h7---7-(7)--|-8-7----------||
|-----0--------|-----0--------|-----0--------|-----0-/8-7---||


    N.C.(B5)
    Gtr IV
    E E E E +E  E   E E E E Q    E E E E +E  E   E E E E Q
||----------------|------------|---------------|-------------||
||----------------|------------|---------------|-------------||
||o-------4-(4)---|-5-4---4----|-------4-(4)---|-5-4--------o||
||----------------|------------|---------------|-------5-4---||
||o-0h2-2-------2-|-----2---2--|-0h2-2-------2-|-----2------o||
||----------------|------------|---------------|-------------||
||----------------|------------|---------------|-------------||
|
|   Gtr V
|   E E E E +E  E   E E E E Q    E E E E +E  E   E E E E Q
||--------7-(7)---|-8-7---7----|-------7-(7)---|-8-7---------||
||----------------|------------|---------------|-------8-7---||
||o-------4-(4)---|-5-4---4----|-------4-(4)---|-5-4--------o||
||----------------|------------|---------------|-------5-4---||
||o-0h2-2-------2-|-----2---2--|-0h2-2-------2-|-----2------o||
||----------------|------------|---------------|-------------||
||----------------|------------|---------------|-------------||


   Verse
    N.C.(B5)
    E E E E +E  E   E E E E Q    E E E E +E  E   E E E E Q   4x
||----------------|------------|---------------|-------------||
||----------------|------------|---------------|-------------||
||o-------4-(4)---|-5-4---4----|-------4-(4)---|-5-4--------o||
||----------------|------------|---------------|-------5-4---||
||o-0h2-2-------2-|-----2---2--|-0h2-2-------2-|-----2------o||
||----------------|------------|---------------|-------------||
||----------------|------------|---------------|-------------||
|
|   E E E E +E  E   E E E E Q    E E E E +E  E   E E E E Q   4x
||--------7-(7)---|-8-7---7----|-------7-(7)---|-8-7---------||
||----------------|------------|---------------|-------8-7---||
||o-------4-(4)---|-5-4---4----|-------4-(4)---|-5-4--------o||
||----------------|------------|---------------|-------5-4---||
||o-0h2-2-------2-|-----2---2--|-0h2-2-------2-|-----2------o||
||----------------|------------|---------------|-------------||
||----------------|------------|---------------|-------------||


  B5
  Gtr I
   E  E E E Q     H.         H.                     H.
|--------------|----------|----------------------|------------------|
|--------------|----------|----------------------|------------------|
|--------------|----------|----------------------|------------------|
|--4--4---4----|----------|----------------------|------------------|
|--2--2---2----|----------|----------------------|------------------|
|--2--2---2----|----------|----------------------|------------------|
|--0--
Добавлено: 09.07.2012
Другие материалы по этой песне:
  • Аккорды и текст

Страница создана 21.02.2012
http://primanota.ru/dream-theater/train-of-thought-album-chords.htm
Привет, Гость.
Предлагаем пройти революционный курс по гитаре.
Подарок от PrimaNota.Ru, забирай!