PrimaNota.ru - самый крупный в мире бесплатный архив песенных текстов, аккордов, табулатур и нот


Dream Theater - The Shattered Fortress - текст песни, таба, бас-таба, видео

Регистрация Запомнить меня
Войти через:  Facebook Google Twitter Vk Yandex Mail.ru

Dream Theater - The Shattered Fortress - текст песни, таба, бас-таба, видео

Печатать
Просмотров: 180
Уроки эстрадного вокала в Санкт-Петербурге
The Shattered Fortress Tab

7-String Guitar

B E A D G B E

Duration Legend
---------------
W - whole
H - half
Q - quarter
E - 8th
S - 16th
T - 32nd
X - 64th
. - note dotted
|-n-|  - n-tuplets


Tablature Legend
----------------
L - tied note
x - dead note
g - grace note
(n) - ghost note
> - accentuded note
NH - natural harmonic
AH - artificial harmonic
TH - tapped harmonic
SH - semi harmonic
PH - pitch harmonic
h - hammer on
p - pull off
b - bend
br - bendRelease
pb - preBend
pbr - preBendRelease
brb - bendReleaseBend
\n/ - tremolo bar dip
\n - tremolo bar dive
-/n - tremolo bar Release up
/n\ - tremolo bar inverted dip
/n - tremolo bar return
-\n - tremolo bar Release down
S - shift slide
s - legato slide
/ -  slide into from below or out of upwards
\ -  slide into from above or out of downwards
~ - vibrato
W - wide vibrato
tr - trill
TP - tremolo picking
T - tapping
S - slap
P - pop
< - fade in
^ - brush up
v - brush down

                               PM PM PM PM PM PM  
             E  E  E  E  E  E  E  E  E  E  E  E   
E||-------|--------------------------------------|
B||-------|--------------------------------------|
G||-------|--------------------------------------|
D||-------|--------------------------------------|
A||-------|--------------------------------------|
E||-------|--4--5--4--2--4--2--4--4--4--4--4--2--|
B||-------|--2--3--2--0--2--0--2--2--2--2--2--0--|


                    PM PM PM PM PM PM                      PM PM PM PM PM PM  
  E  E  E  E  E  E  E  E  E  E  E  E     E  E  E  E  E  E  E  E  E  E  E  E   
--------------------------------------|--------------------------------------|
--------------------------------------|--------------------------------------|
--------------------------------------|--------------------------------------|
--------------------------------------|--------------------------------------|
--------------------------------------|--------------------------------------|
--4--5--4--2--4--2--4--4--4--4--4--2--|--4--5--4--2--4--2--4--4--4--4--4--2--|
--2--3--2--0--2--0--2--2--2--2--2--0--|--2--3--2--0--2--0--2--2--2--2--2--0--|


                    PM PM PM PM PM PM                      PM PM PM PM PM PM  
  E  E  E  E  E  E  E  E  E  E  E  E     E  E  E  E  E  E  E  E  E  E  E  E   
--------------------------------------|--------------------------------------|
--------------------------------------|--------------------------------------|
--------------------------------------|--------------------------------------|
--------------------------------------|--------------------------------------|
--------------------------------------|--------------------------------------|
--4--5--4--2--4--2--4--4--4--4--4--2--|--4--5--4--2--4--2--4--4--4--4--4--2--|
--2--3--2--0--2--0--2--2--2--2--2--0--|--2--3--2--0--2--0--2--2--2--2--2--0--|


                    PM PM PM PM PM PM                      PM PM PM PM PM PM  
  E  E  E  E  E  E  E  E  E  E  E  E     E  E  E  E  E  E  E  E  E  E  E  E   
--------------------------------------|--------------------------------------|
--------------------------------------|--------------------------------------|
--------------------------------------|--------------------------------------|
--------------------------------------|--------------------------------------|
--------------------------------------|--------------------------------------|
--4--5--4--2--4--2--4--4--4--4--4--2--|--4--5--4--2--4--2--4--4--4--4--4--2--|
--2--3--2--0--2--0--2--2--2--2--2--0--|--2--3--2--0--2--0--2--2--2--2--2--0--|


                    PM PM PM PM PM PM                      PM PM PM PM PM PM  
  E  E  E  E  E  E  E  E  E  E  E  E     E  E  E  E  E  E  E  E  E  E  E  E   
--------------------------------------|--------------------------------------|
--------------------------------------|--------------------------------------|
--------------------------------------|--------------------------------------|
--------------------------------------|--------------------------------------|
--------------------------------------|--------------------------------------|
--4--5--4--2--4--2--4--4--4--4--4--2--|--4--5--4--2--4--2--4--4--4--4--4--2--|
--2--3--2--0--2--0--2--2--2--2--2--0--|--2--3--2--0--2--0--2--2--2--2--2--0--|


                                                          PM PM PM PM PM PM  
  E  E  E  E  E  E  E  E  E  Q    E     E  E  E  E  E  E  E  E  E  E  E  E   
-------------------------------------|--------------------------------------|
-------------------------------------|--------------------------------------|
-------------------------------------|--------------------------------------|
-------------------------------------|--------------------------------------|
-------------------------------------|--------------------------------------|
--4--5--4--2--4--2--4--5--2--L----L--|--4--5--4--2--4--2--4--4--4--4--4--2--|
--2--3--2--0--2--0--2--3--0--L----L--|--2--3--2--0--2--0--2--2--2--2--2--0--|


                    PM PM PM PM PM PM                      PM PM PM PM PM PM  
  E  E  E  E  E  E  E  E  E  E  E  E     E  E  E  E  E  E  E  E  E  E  E  E   
--------------------------------------|--------------------------------------|
--------------------------------------|--------------------------------------|
--------------------------------------|--------------------------------------|
--------------------------------------|--------------------------------------|
--------------------------------------|--------------------------------------|
--4--5--4--2--4--2--4--4--4--4--4--2--|--4--5--4--2--4--2--4--4--4--4--4--2--|
--2--3--2--0--2--0--2--2--2--2--2--0--|--2--3--2--0--2--0--2--2--2--2--2--0--|


                                                          PM PM PM PM PM PM  
  E  E  E  E  E  E  E  E  E  Q    E     E  E  E  E  E  E  E  E  E  E  E  E   
-------------------------------------|--------------------------------------|
-------------------------------------|--------------------------------------|
-------------------------------------|--------------------------------------|
-------------------------------------|--------------------------------------|
-------------------------------------|--------------------------------------|
--4--5--4--2--4--2--4--5--2--L----L--|--4--5--4--2--4--2--4--4--4--4--4--2--|
--2--3--2--0--2--0--2--3--0--L----L--|--2--3--2--0--2--0--2--2--2--2--2--0--|


                    PM PM PM PM PM PM                      PM PM PM PM PM PM  
  E  E  E  E  E  E  E  E  E  E  E  E     E  E  E  E  E  E  E  E  E  E  E  E   
--------------------------------------|--------------------------------------|
--------------------------------------|--------------------------------------|
--------------------------------------|--------------------------------------|
--------------------------------------|--------------------------------------|
--------------------------------------|--------------------------------------|
--4--5--4--2--4--2--4--4--4--4--4--2--|--4--5--4--2--4--2--4--4--4--4--4--2--|
--2--3--2--0--2--0--2--2--2--2--2--0--|--2--3--2--0--2--0--2--2--2--2--2--0--|


                                                          PM PM PM PM PM PM  
  E  E  E  E  E  E  E  E  E  Q    E     E  E  E  E  E  E  E  E  E  E  E  E   
-------------------------------------|--------------------------------------|
-------------------------------------|--------------------------------------|
-------------------------------------|--------------------------------------|
-------------------------------------|--------------------------------------|
-------------------------------------|--------------------------------------|
--4--5--4--2--4--2--4--5--2--L----L--|--4--5--4--2--4--2--4--4--4--4--4--2--|
--2--3--2--0--2--0--2--3--0--L----L--|--2--3--2--0--2--0--2--2--2--2--2--0--|


                    PM PM PM PM PM PM                      PM PM PM PM PM PM  
  E  E  E  E  E  E  E  E  E  E  E  E     E  E  E  E  E  E  E  E  E  E  E  E   
--------------------------------------|--------------------------------------|
--------------------------------------|--------------------------------------|
--------------------------------------|--------------------------------------|
--------------------------------------|--------------------------------------|
--------------------------------------|--------------------------------------|
--4--5--4--2--4--2--4--4--4--4--4--2--|--4--5--4--2--4--2--4--4--4--4--4--2--|
--2--3--2--0--2--0--2--2--2--2--2--0--|--2--3--2--0--2--0--2--2--2--2--2--0--|


                                                          PM PM PM PM PM PM  
  E  E  E  E  E  E  E  E  E  Q    E     E  E  E  E  E  E  E  E  E  E  E  E   
-------------------------------------|--------------------------------------|
-------------------------------------|--------------------------------------|
-------------------------------------|--------------------------------------|
-------------------------------------|--------------------------------------|
-------------------------------------|--------------------------------------|
--4--5--4--2--4--2--4--5--2--L----L--|--4--5--4--2--4--2--4--4--4--4--4--2--|
--2--3--2--0--2--0--2--3--0--L----L--|--2--3--2--0--2--0--2--2--2--2--2--0--|


                                                          PM PM PM PM PM PM  
  E  E  E  E  E  E  E  E  E  Q    E     E  E  E  E  E  E  E  E  E  E  E  E   
-------------------------------------|--------------------------------------|
-------------------------------------|--------------------------------------|
-------------------------------------|--------------------------------------|
-------------------------------------|--------------------------------------|
-------------------------------------|--------------------------------------|
--4--5--4--2--4--2--4--5--2--L----L--|--4--5--4--2--4--2--4--4--4--4--4--2--|
--2--3--2--0--2--0--2--3--0--L----L--|--2--3--2--0--2--0--2--2--2--2--2--0--|


                                                          PM PM PM PM PM PM  
  E  E  E  E  E  E  E  E  E  Q    E     E  E  E  E  E  E  E  E  E  E  E  E   
-------------------------------------|--------------------------------------|
-------------------------------------|--------------------------------------|
-------------------------------------|--------------------------------------|
-------------------------------------|--------------------------------------|
-------------------------------------|--------------------------------------|
--4--5--4--2--4--2--4--5--2--L----L--|--4--5--4--2--4--2--4--4--4--4--4--2--|
--2--3--2--0--2--0--2--3--0--L----L--|--2--3--2--0--2--0--2--2--2--2--2--0--|


                                                          PM PM PM PM PM PM  
  E  E  E  E  E  E  E  E  E  Q    E     E  E  E  E  E  E  E  E  E  E  E  E   
-------------------------------------|--------------------------------------|
-------------------------------------|--------------------------------------|
-------------------------------------|--------------------------------------|
-------------------------------------|--------------------------------------|
-------------------------------------|--------------------------------------|
--4--5--4--2--4--2--4--5--2--L----L--|--4--5--4--2--4--2--4--4--4--4--4--2--|
--2--3--2--0--2--0--2--3--0--L----L--|--2--3--2--0--2--0--2--2--2--2--2--0--|


  E  E  E  E  E  E  E  E  E  Q    E     E  E  E  E  E  E  E  E  E  E  E  E   
-------------------------------------|--------------------------------------|
-------------------------------------|--------------------------------------|
-------------------------------------|--------------------------------------|
-------------------------------------|--------------------------------------|
-------------------------------------|--4--5--4--2--4-----------------4-----|
--4--5--4--2--4--2--4--5--2--L----L--|--------------------------------------|
--2--3--2--0--2--0--2--3--0--L----L--|-----------------2--2--2--2--2-----2--|


  E  E  E  E  E  E  E  E  E  E  E  E     E  E  E  E  E  E  E  E  E  E  E  E   
--------------------------------------|--------------------------------------|
--------------------------------------|--------------------------------------|
--------------------------------------|--------------------------------------|
--------------6-----6--7--6-----------|--------------------------------------|
--4--5--4--2-----4-----------4--------|--4--5--4--2--4-----------------4-----|
--------------------------------------|--------------------------------------|
--------------------------------0--0--|-----------------2--2--2--2--2-----2--|


  E  E  E  E  E  E  E  E  E  E  E  E     E  E  E  E  E  E  E  E  E  E  E  E   
--------------------------------------|--------------------------------------|
--------------------------------------|--------------------------------------|
--------------------------------------|--------------------------------------|
--------------------------------------|--------------------------------------|
--4--5--4--2--4--2--4--5--2-----------|--4--5--4--2--4-----------------4-----|
--------------------------------------|--------------------------------------|
-----------------------------0--0--0--|-----------------2--2--2--2--2-----2--|


  E  E  E  E  E  E  E  E  E  E  E  E     E  E  E  E  E  E  E  E  E  E  E  E   
--------------------------------------|--------------------------------------|
--------------------------------------|--------------------------------------|
--------------------------------------|--------------------------------------|
--------------6-----6--7--6-----------|--------------------------------------|
--4--5--4--2-----4-----------4--2-----|--4--5--4--2--4-----------------4-----|
--------------------------------------|--------------------------------------|
-----------------------------------0--|-----------------2--2--2--2--2-----2--|


  E  E  E  E  E  E  E  E  E  E  E  E     E  E  E  E  E  E  E  E  E  E  E  E   
--------------------------------------|--------------------------------------|
--------------------------------------|--------------------------------------|
--------------------------------------|--------------------------------------|
--------------------------------------|--------------------------------------|
--4--5--4--2--4--2--4--5--2-----------|--4--5--4--2--4-----------------4-----|
--------------------------------------|--------------------------------------|
-----------------------------0--0--0--|-----------------2--2--2--2--2-----2--|


  E  E  E  E  E  E  E  E  E  E  E  E     E  E  E  E  E  E  E  E  E  E  E  E   
--------------------------------------|--------------------------------------|
--------------------------------------|--------------------------------------|
--------------------------------------|--------------------------------------|
--------------6-----6--7--6-----------|--------------------------------------|
--4--5--4--2-----4-----------4--------|--4--5--4--2--4-----------------4-----|
--------------------------------------|--------------------------------------|
--------------------------------0--0--|-----------------2--2--2--2--2-----2--|


  E  E  E  E  E  E  E  E  E  E  E  E     E  E  E  E  E  E  E  E  E  E  E  E   
--------------------------------------|--------------------------------------|
--------------------------------------|--------------------------------------|
--------------------------------------|--------------------------------------|
--------------------------------------|--------------------------------------|
--4--5--4--2--4--2--4--5--2-----------|--4--5--4--2--4-----------------4-----|
--------------------------------------|--------------------------------------|
-----------------------------0--0--0--|-----------------2--2--2--2--2-----2--|


  E  E  E  E  E  E  E  E  E  E  E  E     E  E  E  E  E  E  E  E  E  E  E  E   
--------------------------------------|--------------------------------------|
--------------------------------------|--------------------------------------|
--------------------------------------|--------------------------------------|
--------------6-----6--7--6-----------|--------------------------------------|
--4--5--4--2-----4-----------2--------|--4--5--4--2--4-----------------------|
--------------------------------------|--------------------------------4--5--|
--------------------------------0--0--|-----------------2--2--2--2--2--------|


  E  E  E  E  E  E  E  E  E  E  E  E     E  E  E  E  E  E  E  E  E  E  E  E   
--------------------------------------|--------------------------------------|
--------------------------------------|--------------------------------------|
--------------------------------------|--------------------------------------|
--------------------------------------|--------------------------------------|
--------------------------------------|--4--5--4--2--4-----------------4-----|
--7-----------5--4--2-----------------|--------------------------------------|
-----5--5--5-----------0--0--0--0--0--|-----------------2--2--2--2--2-----2--|


  E  E  E  E  E  E  E  E  E  E  E  E     E  E  E  E  E  E  E  E  E  E  E  E   
--------------------------------------|--------------------------------------|
--------------------------------------|--------------------------------------|
--------------------------------------|--------------------------------------|
--------------6-----6--7--6-----------|--------------------------------------|
--4--5--4--2-----4-----------2--------|--4--5--4--2--4-----------------------|
--------------------------------------|--------------------------------4--5--|
--------------------------------0--0--|-----------------2--2--2--2--2--------|


  E  E  E  E  E  E  E  E  E  E  E  E     E  E  E  E  E  E  E  E  E  E  E  E   
--------------------------------------|--------------------------------------|
--------------------------------------|--------------------------------------|
--------------------------------------|--------------------------------------|
--------------------------------------|--------------------------------------|
--------------------------------------|--4--5--4--2--4-----------------4-----|
--7-----------5--4--2-----------------|--------------------------------------|
-----5--5--5-----------0--0--0--0--0--|-----------------2--2--2--2--2-----2--|


  E  E  E  E  E  E  E  E  E  E  E  E     E  E  E  E  E  E  E  E  E  E  E  E   
--------------------------------------|--------------------------------------|
--------------------------------------|--------------------------------------|
--------------------------------------|--------------------------------------|
--------------6-----6--7--6-----------|--------------------------------------|
--4--5--4--2-----4-----------2--------|--4--5--4--2--4-----------------------|
--------------------------------------|--------------------------------4--5--|
--------------------------------0--0--|-----------------2--2--2--2--2--------|


  E  E  E  E  E  E  E  E  E  E  E  E     W.                  W.                
--------------------------------------|-------------------|-------------------|
--------------------------------------|-------------------|-------------------|
--------------------------------------|-------------------|-------------------|
--------------------------------------|-------------------|-------------------|
--------------------------------------|--4----------------|--4----------------|
--7-----------5--4--2-----------------|--4----------------|--4----------------|
-----5--5--5-----------0--0--0--0--0--|--2----------------|--2----------------|


  W.                  H.           H.              W.                
-------------------|----------------------------|-------------------|
-------------------|----------------------------|-------------------|
-------------------|----------------------------|-------------------|
--4----------------|--7------------4------------|-------------------|
--4----------------|--7------------4------------|--4----------------|
--2----------------|--5------------2------------|--4----------------|
-------------------|----------------------------|--2----------------|


  H.           H.              W.                  H.           H.            
----------------------------|-------------------|----------------------------|
----------------------------|-------------------|----------------------------|
----------------------------|-------------------|----------------------------|
---------------7------------|-------------------|----------------------------|
--4------------7------------|-------------------|--4------------2------------|
--4------------5------------|--4----------------|--2------------0------------|
--2-------------------------|-------------------|----------------------------|


  S S S S S S S S S S S S S S S S    S S S S S S S S S S S S S S S S  
----------------------------------|----------------------------------|
----------------------------------|----------------------------------|
----------------------------------|----------------------------------|
----------------------------------|----------------------------------|
----------------------------------|----------------------------------|
----------------------------------|----------------------------------|
--3-2-0-5-3-0-3-2-0-0-L-0-0-L-0-0-|--3-2-0-5-3-0-3-2-0-0-L-0-0-L-0-0-|


  S S S S S S S S S S S S S S S S    S S S S S S S S S S S S S S S S  
----------------------------------|----------------------------------|
----------------------------------|----------------------------------|
----------------------------------|----------------------------------|
----------------------------------|----------------------------------|
----------------------------------|----------------------------------|
----------------------------------|----------------------------------|
--3-2-0-5-3-0-3-2-0-0-L-0-0-L-0-0-|--3-2-0-5-3-0-6-5-0-5-3-0-3-2-0-0-|


  S S S S S S S S S S S S S S S S    S S S S S S S S S S S S S S S S  
----------------------------------|----------------------------------|
----------------------------------|----------------------------------|
----------------------------------|----------------------------------|
----------------------------------|----------------------------------|
----------------------------------|----------------------------------|
----------------------------------|----------------------------------|
--3-2-0-5-3-0-3-2-0-0-L-0-0-L-0-0-|--3-2-0-5-3-0-3-2-0-0-L-0-0-L-0-0-|


  S S S S S S S S S S S S S S S S    S S S S S S S S S S S S S S S S  
----------------------------------|----------------------------------|
----------------------------------|----------------------------------|
----------------------------------|----------------------------------|
----------------------------------|----------------------------------|
----------------------------------|----------------------------------|
----------------------------------|----------------------------------|
--3-2-0-5-3-0-3-2-0-0-L-0-0-L-0-0-|--3-2-0-5-3-0-6-5-0-5-3-0-3-2-0-0-|


  S S S S S S S S S S S S S S S S    S S S S S S S S S S S S S S S S  
----------------------------------|----------------------------------|
----------------------------------|----------------------------------|
----------------------------------|----------------------------------|
----------------------------------|----------------------------------|
----------------------------------|----------------------------------|
----------------------------------|----------------------------------|
--3-2-0-5-3-0-3-2-0-0-L-0-0-L-0-0-|--3-2-0-5-3-0-3-2-0-0-L-0-0-L-0-0-|


  S S S S S S S S S S S S S S S S    S S S S S S S S S S S S S S S S  
----------------------------------|----------------------------------|
----------------------------------|----------------------------------|
----------------------------------|----------------------------------|
----------------------------------|----------------------------------|
----------------------------------|----------------------------------|
----------------------------------|----------------------------------|
--3-2-0-5-3-0-3-2-0-0-L-0-0-L-0-0-|--3-2-0-5-3-0-6-5-0-5-3-0-3-2-0-0-|


  S S S S S S S S S S S S S S S S    S S S S S S S S S S S S S S S S  
----------------------------------|----------------------------------|
----------------------------------|----------------------------------|
----------------------------------|----------------------------------|
----------------------------------|----------------------------------|
----------------------------------|----------------------------------|
----------------------------------|----------------------------------|
--3-2-0-5-3-0-3-2-0-0-L-0-0-L-0-0-|--3-2-0-5-3-0-3-2-0-0-L-0-0-L-0-0-|


  S S S S S S S S S S S S S S S S    S S S S S S S S S S S S S S S S  
----------------------------------|----------------------------------|
----------------------------------|----------------------------------|
----------------------------------|----------------------------------|
----------------------------------|----------------------------------|
----------------------------------|----------------------------------|
----------------------------------|----------------------------------|
--3-2-0-5-3-0-3-2-0-0-L-0-0-L-0-0-|--3-2-0-5-3-0-6-5-0-5-3-0-3-2-0-0-|


  S S S S S S S S S S S S S S S S    S S S S S S S S S S S S S S S S  
----------------------------------|----------------------------------|
----------------------------------|----------------------------------|
----------------------------------|----------------------------------|
----------------------------------|----------------------------------|
----------------------------------|----------------------------------|
----------------------------------|----------------------------------|
--3-2-0-5-3-0-3-2-0-0-L-0-0-L-0-0-|--3-2-0-5-3-0-3-2-0-0-L-0-0-L-0-0-|


  S S S S S S S S S S S S S S S S    S S S S S S S S S S S S S S S S  
----------------------------------|----------------------------------|
----------------------------------|----------------------------------|
----------------------------------|----------------------------------|
----------------------------------|----------------------------------|
----------------------------------|----------------------------------|
----------------------------------|----------------------------------|
--3-2-0-5-3-0-3-2-0-0-L-0-0-L-0-0-|--3-2-0-5-3-0-6-5-0-5-3-0-3-2-0-0-|


  S S S S S S S S S S S S S S S S    S S S S S S S S S S S S S S S S  
----------------------------------|----------------------------------|
----------------------------------|----------------------------------|
----------------------------------|----------------------------------|
----------------------------------|----------------------------------|
----------------------------------|----------------------------------|
----------------------------------|----------------------------------|
--3-2-0-5-3-0-3-2-0-0-L-0-0-L-0-0-|--3-2-0-5-3-0-3-2-0-0-L-0-0-L-0-0-|


  S S S S S S S S S S S S S S S S    S S S S S S S S S S S S S S S S  
----------------------------------|----------------------------------|
----------------------------------|----------------------------------|
----------------------------------|----------------------------------|
----------------------------------|----------------------------------|
----------------------------------|----------------------------------|
----------------------------------|----------------------------------|
--3-2-0-5-3-0-3-2-0-0-L-0-0-L-0-0-|--3-2-0-5-3-0-6-5-0-5-3-0-3-2-0-0-|


  Q    S S S S S S S S S S S S    Q    S S S S S S S S S S S S  
-------------------------------|-------------------------------|
-------------------------------|-------------------------------|
-------------------------------|-------------------------------|
--9----------------------------|-------------------------------|
--9----------------------------|--8----------------------------|
--7----------------------------|--9----------------------------|
-------0-0-0-0-0-0-0-0-0-0-0-0-|-------0-0-0-0-0-0-0-0-0-0-0-0-|


  Q    S S S S S S S S S S S S    S S S S S S S S S S S S S S S S  
-------------------------------|----------------------------------|
-------------------------------|----------------------------------|
-------------------------------|----------------------------------|
-------------------------------|----------------------------------|
--7----------------------------|----------------------------------|
--6----------------------------|----------------------------------|
-------0-0-0-0-0-0-0-0-0-0-0-0-|--3-2-0-5-3-0-6-5-0-5-3-0-3-2-0-0-|


  Q    S S S S S S S S S S S S     Q    S S S S S S S S S S S S  
-------------------------------|--------------------------------|
-------------------------------|--------------------------------|
-------------------------------|--------------------------------|
--9----------------------------|---9----------------------------|
--9----------------------------|--10----------------------------|
--7----------------------------|---7----------------------------|
-------0-0-0-0-0-0-0-0-0-0-0-0-|--------0-0-0-0-0-0-0-0-0-0-0-0-|


  Q    S S S S S S S S S S S S    S S S S S S S S S S S S S S S S  
-------------------------------|----------------------------------|
-------------------------------|----------------------------------|
-------------------------------|----------------------------------|
-------------------------------|----------------------------------|
--7----------------------------|----------------------------------|
--8----------------------------|----------------------------------|
-------0-0-0-0-0-0-0-0-0-0-0-0-|--3-2-0-5-3-0-6-5-0-5-3-0-3-2-0-0-|


  S S S E  E  E  E.  S S S S    S S S E  E  E  S E  Q     
-----------------------------|---------------------------|
-----------------------------|---------------------------|
-----------------------------|---------------------------|
-----------------------------|---------------------------|
-----------------------------|---------------------------|
--2-1----------------------1-|--2-1----------------------|
------3-2--0--2--0---L-2-3---|------3-2--0--2--3-2--L----|


  S S S E  E  E  E.  S S S S    S S S E  E  E  S E  Q     
-----------------------------|---------------------------|
-----------------------------|---------------------------|
-----------------------------|---------------------------|
-----------------------------|---------------------------|
-----------------------------|---------------------------|
--2-1----------------------1-|--2-1----------------------|
------3-2--0--2--0---L-2-3---|------3-2--0--2--3-2--L----|


  S S S E  E  E  E.  S S S S    S S S E  E  E  S E  Q     
-----------------------------|---------------------------|
-----------------------------|---------------------------|
-----------------------------|---------------------------|
-----------------------------|---------------------------|
-----------------------------|---------------------------|
--2-1----------------------1-|--2-1----------------------|
------3-2--0--2--0---L-2-3---|------3-2--0--2--3-2--L----|


  S S S E  E  E  E.  S S S S    S S S E  E  E  S E  Q     
-----------------------------|---------------------------|
-----------------------------|---------------------------|
-----------------------------|---------------------------|
-----------------------------|---------------------------|
-----------------------------|---------------------------|
--2-1----------------------1-|--2-1----------------------|
------3-2--0--2--0---L-2-3---|------3-2--0--2--3-2--L----|


  H        S S S S S S S S Q    S S S S Q    S S S S  
-----------------------------------------------------|
-----------------------------------------------------|
---------------------------9------------8------------|
---------------------------8------------7------------|
--2------------------------7------------6------------|
--2--------2-----------------------------------------|
--0--------0-0-0-0-0-0-0-0------0-0-0-0------0-0-0-0-|


  H        S S S S S S S S H          H          
------------------------------------------------|
------------------------------------------------|
------------------------------------------------|
--2---------------------------------------------|
--2---------------------------------------------|
--0--------0-0-0-0-0-0-0-0-1~--------/4~--------|
------------------------------------------------|


                                          W              
  H        S S S S S S S S  Q     S S S S Q     S S S S  
--------------------------------------------------------|
--------------------------------------------------------|
---------------------------10~------------9~------------|
----------------------------9~------------8~------------|
--2-------------------------8~------------7-------------|
--2--------2--------------------------------------------|
--0--------0-0-0-0-0-0-0-0--------0-0-0-0-------0-0-0-0-|


  W                Q    Q    Q    Q     
---------------------------------------|
---------------------------------------|
---------------------------------------|
--5------------------------------------|
--5------------------------------------|
--3-------------------------------5----|
-------------------2----3----5---------|


  H        S S S S S S S S Q    S S S S Q    S S S S  
-----------------------------------------------------|
-----------------------------------------------------|
---------------------------6------------5------------|
---------------------------5------------4------------|
--5------------------------4------------3------------|
--5--------------------------------------------------|
--3--------3-3-3-3-3-3-3-3------3-3-3-3------3-3-3-3-|


  H        S S S S S S S S H          H          
------------------------------------------------|
------------------------------------------------|
------------------------------------------------|
--5---------------------------------------------|
--5---------------------------------------------|
--3--------3-3-3-3-3-3-3-3-3~--------/6~--------|
------------------------------------------------|


  H        S S S S S S S S H        Q     Q     
-----------------------------------------------|
-----------------------------------------------|
-----------------------------------------------|
-----------------------------------------------|
--5--------------------------------------------|
--5--------------------------------------------|
--3--------3-3-3-3-3-3-3-3-6--------8----10----|


                                          PM PM PM PM PM PM PM PM PM       
   H.           Q    H        H           S  S  S  S  E  S  E  S  E  Q     
---------------------------------------|----------------------------------|
---------------------------------------|----------------------------------|
---------------------------------------|----------------------------------|
---------------------------------------|----------------------------------|
---------------------------------------|----------------------------------|
---------------------7--------3--------|----------------------------------|
--11------------3----5--------1--------|--0--0--0--0--0--0--0--0--0-------|


  PM PM PM PM PM PM PM PM PM         PM PM PM PM PM PM PM PM PM       
  S  S  S  S  E  S  E  S  E  Q       S  S  S  S  E  S  E  S  E  Q     
----------------------------------|----------------------------------|
----------------------------------|----------------------------------|
-----------------------------5----|----------------------------------|
-----------------------------4----|----------------------------------|
-----------------------------3----|----------------------------------|
----------------------------------|----------------------------------|
--0--0--0--0--0--0--0--0--0-------|--0--0--0--0--0--0--0--0--0-------|


  PM PM PM PM PM PM PM PM PM PM PM PM PM PM PM  
  S  S  S  S  E  S  S  S  S  S  S  S  S  S  S   
-----------------------------------------------|
-----------------------------------------------|
-----------------------------------------------|
-----------------------------------------------|
-----------------------------------------------|
-----------------------------------------------|
--0--0--0--0--0--0--0--3--2--0--5--3--0--3--2--|


  PM PM PM PM PM PM PM PM PM         PM PM PM PM PM PM PM PM PM       
  S  S  S  S  E  S  E  S  E  Q       S  S  S  S  E  S  E  S  E  Q     
----------------------------------|----------------------------------|
----------------------------------|----------------------------------|
----------------------------------|-----------------------------5----|
----------------------------------|-----------------------------4----|
----------------------------------|-----------------------------3----|
----------------------------------|----------------------------------|
--0--0--0--0--0--0--0--0--0-------|--0--0--0--0--0--0--0--0--0-------|


  PM PM PM PM PM PM PM PM PM         PM PM PM PM PM PM PM PM   PM   PM    
                                                          |----3----|     
  S  S  S  S  E  S  E  S  E  Q       S  S  S  S  E  S  S  Q    Q    Q     
----------------------------------|--------------------------------------|
----------------------------------|--------------------------------------|
----------------------------------|--------------------------------------|
----------------------------------|--------------------------------------|
----------------------------------|--------------------------------------|
----------------------------------|-----------------------5----6----7----|
--0--0--0--0--0--0--0--0--0-------|--0--0--0--0--0--0--0--3----4----5----|


  PM   PM PM PM PM PM                PM PM PM PM PM         
  Q    E  S  E  S  E  E  S S    Q    E  S  E  S  E  E  S S  
-----------------------------|-----------------------------|
-----------------------------|-----------------------------|
-----------------------------|-----------------------------|
--9--------------------------|-----------------------------|
--9--------------------------|--8-------------------8------|
--7--------------------------|--9-------------------9------|
--0----0--0--0--0--0-----0-0-|-------0--0--0--0--0-----0-0-|


       PM PM PM PM PM           PM   PM PM PM PM PM PM PM PM PM      
  Q    E  S  E  S  E  E  S S    Q    E  S  S  S  S  S  S  S  S  S S  
-----------------------------|--------------------------------------|
-----------------------------|--------------------------------------|
-----------------------------|--------------------------------------|
--8--------------------------|--9-----------------------------------|
--7--------------------------|--9-----------------------------------|
--6--------------------------|--7-----------------------------------|
-------0--0--0--0--0-----0-0-|--0----0--0--0--3--2--0--5--3--0--3-2-|


       PM PM PM PM PM            PM   PM PM PM PM PM        
  Q    E  S  E  S  E  E  S S     Q    E  S  E  S  E   Q     
-----------------------------|-----------------------------|
-----------------------------|-----------------------------|
-----------------------------|-----------------------------|
--9--------------------------|---9--------------------9----|
--9--------------------------|--10-------------------10----|
--7--------------------------|---7--------------------7----|
-------0--0--0--0--0-----0-0-|---0----0--0--0--0--0--------|


        PM PM PM PM PM                PM PM PM PM   PM   PM    
                                               |----3----|     
   Q    E  S  E  S  E  E  S S    Q    E  S  S  Q    Q    Q     
------------------------------|-------------------------------|
------------------------------|-------------------------------|
------------------------------|-------------------------------|
---9--------------------------|--9----------------------------|
--10--------------------------|--9----------------------------|
---8--------------------------|--7-------------5----6----7----|
--------0--0--0--0--0-----0-0-|-------0--0--0--3----4----5----|


  PM   PM PM PM PM PM                PM PM PM PM PM         
  Q    E  S  E  S  E  E  S S    Q    E  S  E  S  E  E  S S  
-----------------------------|-----------------------------|
-----------------------------|-----------------------------|
-----------------------------|-----------------------------|
--9--------------------------|-----------------------------|
--9--------------------------|--8-------------------8------|
--7--------------------------|--9-------------------9------|
--0----0--0--0--0--0-----0-0-|-------0--0--0--0--0-----0-0-|


       PM PM PM PM PM           PM   PM PM PM PM PM PM PM PM PM      
  Q    E  S  E  S  E  E  S S    Q    E  S  S  S  S  S  S  S  S  S S  
-----------------------------|--------------------------------------|
-----------------------------|--------------------------------------|
-----------------------------|--------------------------------------|
--8--------------------------|--9-----------------------------------|
--7--------------------------|--9-----------------------------------|
--6--------------------------|--7-----------------------------------|
-------0--0--0--0--0-----0-0-|--0----0--0--0--3--2--0--5--3--0--3-2-|


       PM PM PM PM PM            PM   PM PM PM PM PM        
  Q    E  S  E  S  E  E  S S     Q    E  S  E  S  E   Q     
-----------------------------|-----------------------------|
-----------------------------|-----------------------------|
-----------------------------|-----------------------------|
--9--------------------------|---9--------------------9----|
--9--------------------------|--10-------------------10----|
--7--------------------------|---7--------------------7----|
-------0--0--0--0--0-----0-0-|---0----0--0--0--0--0--------|


        PM PM PM PM PM           PM   PM   PM   PM PM PM PM PM PM  
                                 |----3----|    |--3--|  |--3--|   
   Q    E  S  E  S  E  E  S S    Q    Q    Q    E  E  E  E  E  E   
------------------------------|-----------------------------------|
------------------------------|-----------------------------------|
------------------------------|-----------------------------------|
---9--------------------------|-----------------------------------|
--10--------------------------|--2----2----2----------------------|
---8--------------------------|--2----2----2----2--3--4--5--6--7--|
--------0--0--0--0--0-----0-0-|--0----0----0----0--1--2--3--4--5--|


  S S S E  E  E  E.  S S S S    S S S E  E  E  S E  Q     
-----------------------------|---------------------------|
-----------------------------|---------------------------|
-----------------------------|---------------------------|
-----------------------------|---------------------------|
-----------------------------|---------------------------|
--2-1----------------------1-|--2-1----------------------|
------3-2--0--2--0---L-2-3---|------3-2--0--2--3-2--L----|


  S S S E  E  E  E.  S S S S    S S S E  E  E  S E  Q     
-----------------------------|---------------------------|
-----------------------------|---------------------------|
-----------------------------|---------------------------|
-----------------------------|---------------------------|
-----------------------------|---------------------------|
--2-1----------------------1-|--2-1----------------------|
------3-2--0--2--0---L-2-3---|------3-2--0--2--3-2--L----|


  S S S E  E  E  E.  S S S S    S S S E  E  E  S E  Q     
-----------------------------|---------------------------|
-----------------------------|---------------------------|
-----------------------------|---------------------------|
-----------------------------|---------------------------|
-----------------------------|---------------------------|
--2-1----------------------1-|--2-1----------------------|
------3-2--0--2--0---L-2-3---|------3-2--0--2--3-2--L----|


  S S S E  E  E  E.  S S S S    S S S E  E  E  S E  Q     
-----------------------------|---------------------------|
-----------------------------|---------------------------|
-----------------------------|---------------------------|
-----------------------------|---------------------------|
-----------------------------|---------------------------|
--2-1----------------------1-|--2-1----------------------|
------3-2--0--2--0---L-2-3---|------3-2--0--2--3-2--L----|


  H        S S S S S S S S Q    S S S S Q    S S S S  
-----------------------------------------------------|
-----------------------------------------------------|
---------------------------9------------8------------|
---------------------------8------------7------------|
--2------------------------7------------6------------|
--2--------2-----------------------------------------|
--0--------0-0-0-0-0-0-0-0------0-0-0-0------0-0-0-0-|


  H        S S S S S S S S H          H          
------------------------------------------------|
------------------------------------------------|
------------------------------------------------|
--2---------------------------------------------|
--2---------------------------------------------|
--0--------0-0-0-0-0-0-0-0-1~--------/4~--------|
------------------------------------------------|


                                          W              
  H        S S S S S S S S  Q     S S S S Q     S S S S  
--------------------------------------------------------|
--------------------------------------------------------|
---------------------------10~------------9~------------|
----------------------------9~------------8~------------|
--2-------------------------8~------------7-------------|
--2--------2--------------------------------------------|
--0--------0-0-0-0-0-0-0-0--------0-0-0-0-------0-0-0-0-|


  W                Q    Q    Q    Q     
---------------------------------------|
---------------------------------------|
---------------------------------------|
--5------------------------------------|
--5------------------------------------|
--3-------------------------------5----|
-------------------2----3----5---------|


  H        S S S S S S S S Q    S S S S Q    S S S S  
-----------------------------------------------------|
-----------------------------------------------------|
---------------------------6------------5------------|
---------------------------5------------4------------|
--5------------------------4------------3------------|
--5--------------------------------------------------|
--3--------3-3-3-3-3-3-3-3------3-3-3-3------3-3-3-3-|


  H        S S S S S S S S H          H          
------------------------------------------------|
------------------------------------------------|
------------------------------------------------|
--5---------------------------------------------|
--5---------------------------------------------|
--3--------3-3-3-3-3-3-3-3-3~--------/6~--------|
------------------------------------------------|


  H        S S S S S S S S H        Q     Q     
-----------------------------------------------|
-----------------------------------------------|
-----------------------------------------------|
-----------------------------------------------|
--5--------------------------------------------|
--5--------------------------------------------|
--3--------3-3-3-3-3-3-3-3-6--------8----10----|


                                                    ^          
   H.           Q    H        H           H         H          
---------------------------------------|------------0---------|
---------------------------------------|------------0---------|
---------------------------------------|-----------(0)--------|
---------------------------------------|--2---------L---------|
---------------------------------------|--2---------L---------|
---------------------7--------3--------|--0---------L---------|
--11------------3----5--------1--------|----------------------|


  W                   H        H           W                 
--L----------------|-----------0--------|--L----------------|
--L----------------|-----------0--------|--L----------------|
--L----------------|--------------------|-------------------|
--L----------------|--------------------|-------------------|
--L----------------|--2--------L--------|--L----------------|
--L----------------|--2--------L--------|--L----------------|
-------------------|--0--------L--------|--L----------------|


            ^                                                    
  H         H            H        H           H        H         
------------0---------|--L-----------------|--------------------|
------------0---------|--L-----------------|-----------0--------|
-----------(0)--------|--L--------L--------|--------------------|
--2---------L---------|--L--------2--------|-----------4--------|
--2---------L---------|--L--------2--------|--2--------L--------|
--0---------L---------|--L--------0--------|--2--------L--------|
----------------------|--------------------|--0--------L--------|


  W                   H        Q    Q       H        H         
-------------------|---------------------|--------------------|
--L----------------|---------------------|--------------------|
-------------------|---------------------|--------------------|
--L----------------|----------------3----|-----------L--------|
--L----------------|-----------2---------|-----------L--------|
--L----------------|---------------------|--------------------|
--L----------------|--2------------------|--L--------2--------|


  W                   W                   H        Q    Q     
-------------------|-------------------|---------------------|
-------------------|-------------------|---------------------|
-------------------|-------------------|---------------------|
--5----------------|--L----------------|----------------3----|
--5----------------|--L----------------|-----------2---------|
--3----------------|--L----------------|---------------------|
-------------------|-------------------|--2------------------|


                       ^                                                        
  H        H           W                   W                   E  Q    E  Q     
--------------------|--0----------------|--L----------------|------------------|
--------------------|--0----------------|--L----------------|------------------|
--------------------|--0----------------|--L----------------|------------------|
-----------L--------|--2----------------|--L----------------|------------------|
-----------L--------|--2----------------|--L----------------|------------------|
--------------------|--0----------------|--L----------------|--5-------5-------|
--L--------2--------|-------------------|-------------------|-----3-------2----|


  E  E  E  E  E  E  E  E     E  E  E  E  E  E  E  E   
--------------------------|--------------------------|
--------------------------|--------------------------|
--------------------------|--------------------------|
--------------------------|--------------------------|
--3--2--2--2-----3--2--2--|-----------2--5--2--5--2--|
--3--2--2--2-----3--2--2--|-----2--5-----------------|
--1--0--0--0-----1--0--0--|--5-----------------------|


  E  E  E  E  E  E  E  E     Q    E  Q    E  Q       E  E  E  E  E  E  E  E   
--------------------------|-----------------------|--------------------------|
--------------------------|-----------------------|--------------------------|
--------------------------|-----------------------|--------------------------|
--------------------------|-----------------------|--------------------------|
--3--2--2--2-----3--2--2--|--2--------------------|--3--2--2--2-----3--2--2--|
--3--2--2--2-----3--2--2--|--2----5-------5-------|--3--2--2--2-----3--2--2--|
--1--0--0--0-----1--0--0--|--0-------3-------2----|--1--0--0--0-----1--0--0--|


  E  E  E  E  E  E  E  E     E  E  E  E  E  E  E  E         
--------------------------|--------------------------|-----|
--------------------------|--------------------------|-----|
--------------------------|--------------------------|-----|
--------------------------|--------------------------|-----|
-----------2--5--2--5--2--|--3--2--2--2-----3--2--2--|-----|
-----2--5-----------------|--3--2--2--2-----3--2--2--|-----|
--5-----------------------|--1--0--0--0-----1--0--0--|-----|


  E  E  E  E  E  E  E  E     E  E  E  E  E  E  E  E   
--------------------------|--------------------------|
--------------------------|--------------------------|
--------------------------|--------------------------|
--------------------------|--------------------------|
--3--2--2--2--L--3--2--2--|-----------2--5--2--5--2--|
--3--2--2--2--L--3--2--2--|-----2--5-----------------|
--1--0--0--0--L--1--0--0--|--5-----------------------|


  E  E  E  E  E  E  E  E     Q    E  Q    E  Q       E  E  E  E  E  E  E  E   
--------------------------|-----------------------|--------------------------|
--------------------------|-----------------------|--------------------------|
--------------------------|-----------------------|--------------------------|
--------------------------|-----------------------|--------------------------|
--3--2--2--2--L--3--2--2--|--2--------------------|--3--2--2--2--L--3--2--2--|
--3--2--2--2--L--3--2--2--|--2----5-------5-------|--3--2--2--2--L--3--2--2--|
--1--0--0--0--L--1--0--0--|--0-------3-------2----|--1--0--0--0--L--1--0--0--|


  E  E  E  E  E  E  E  E     E  E  E  E  E  E  E  E     Q    E  Q    E  Q     
--------------------------|--------------------------|-----------------------|
--------------------------|--------------------------|-----------------------|
--------------------------|--------------------------|-----------------------|
--------------------------|--------------------------|-----------------------|
-----------2--5--2--5--2--|--3--2--2--2--L--3--2--2--|--2--------------------|
-----2--5-----------------|--3--2--2--2--L--3--2--2--|--2----5-------5-------|
--5-----------------------|--1--0--0--0--L--1--0--0--|--0-------3-------2----|


  E  E  E  E  E  E  E  E     E  E  E  E  E  E  E  E   
--------------------------|--------------------------|
--------------------------|--------------------------|
--------------------------|--------------------------|
--------------------------|--------------------------|
--3--2--2--2--L--3--2--2--|-----------2--5--2--5--2--|
--3--2--2--2--L--3--2--2--|-----2--5-----------------|
--1--0--0--0--L--1--0--0--|--5-----------------------|


  E  E  E  E  E  E  E  E     Q    E  Q    E  Q       E  E  E  E  E  E  E  E   
--------------------------|-----------------------|--------------------------|
--------------------------|-----------------------|--------------------------|
--------------------------|-----------------------|--------------------------|
--------------------------|-----------------------|--------------------------|
--3--2--2--2--L--3--2--2--|--2--------------------|--3--2--2--2--L--3--2--2--|
--3--2--2--2--L--3--2--2--|--2----5-------5-------|--3--2--2--2--L--3--2--2--|
--1--0--0--0--L--1--0--0--|--0-------3-------2----|--1--0--0--0--L--1--0--0--|


  E  E  E  E  E  E  E  E     E  E  E  E  E  E  E  E     Q    E  Q    E  Q     
--------------------------|--------------------------|-----------------------|
--------------------------|--------------------------|-----------------------|
--------------------------|--------------------------|-----------------------|
--------------------------|--------------------------|-----------------------|
-----------2--5--2--5--2--|--3--2--2--2--L--3--2--2--|--2--------------------|
-----2--5-----------------|--3--2--2--2--L--3--2--2--|--2----5-------5-------|
--5-----------------------|--1--0--0--0--L--1--0--0--|--0-------3-------2----|


  E  E  E  E  E  E  E  E  E  E  E  E     E  E  E  E  E  E  E  E  E  E  E  E   
--------------------------------------|--------------------------------------|
--------------------------------------|--------------------------------------|
--------------------------------------|--------------------------------------|
--------------------------------------|--------------------------------------|
--7--5--8-----5-----------------------|--7--5--8-----5-----------------------|
-----------7-----7--------------------|-----------7-----7--------------------|
--------------------5--5--5--5--5--5--|--------------------5--5--5--5--5--5--|


  E  E  E  E  E  E  E  E  E  E  E  E     E  E  E  E  E  E  E  E  E  E  E  E   
--------------------------------------|--------------------------------------|
--------------------------------------|--------------------------------------|
--------------------------------------|--------------------------------------|
--------------------------------------|--------------------------------------|
--7--5--8-----5-----------------------|--7--5--8-----5-----------------------|
-----------7-----7--------------------|-----------7-----7--------------------|
--------------------5--5--5--5--5--5--|--------------------5--5--5--5--5--5--|


  E  E  E  E  E  E  E  E  E  E  E  E     E  E  E  E  E  E  E  E  E  E  E  E   
--------------------------------------|--------------------------------------|
--------------------------------------|--------------------------------------|
--------------------------------------|--------------------------------------|
--------------------------------------|--------------------------------------|
--7--5--8-----5-----------------------|--7--5--8-----5-----------------------|
-----------7-----7--------------------|-----------7-----7--------------------|
--------------------5--5--5--5--5--5--|--------------------5--5--5--5--5--5--|


  E  E  E  E  E  E  E  E  E  E  E  E   
--------------------------------------|
--------------------------------------|
--------------------------------------|
--------------------------------------|
--7--5--8-----5-----------------------|
-----------7-----7--------------------|
--------------------5--5--5--5--5--5--|


     ????????????????????????                                
  E  E                        E  E  E  E  E  E  E  E  E  E   
------------------------------------------------------------|
------------------------------------------------------------|
------------------------------------------------------------|
---------------------------------------------------9--7--6--|
------------------------------------------------------------|
------------------------------------------------------------|
--5---------------------------------------------------------|


  E  E  E  E  E  E  E  E     E  E  E  E  E  E  E  E   
--------------------------|--------------------------|
--------------------------|--------------------------|
--------------------------|--------------------------|
--------------------------|--------------------------|
--3--2--2--2--L--3--2--2--|-----------2--5--2--5--2--|
--3--2--2--2--L--3--2--2--|-----2--5-----------------|
--1--0--0--0--L--1--0--0--|--5-----------------------|


  E  E  E  E  E  E  E  E     Q    E  Q    E  Q       E  E  E  E  E  E  E  E   
--------------------------|-----------------------|--------------------------|
--------------------------|-----------------------|--------------------------|
--------------------------|-----------------------|--------------------------|
--------------------------|-----------------------|--------------------------|
--3--2--2--2--L--3--2--2--|--2--------------------|--3--2--2--2--L--3--2--2--|
--3--2--2--2--L--3--2--2--|--2----5-------5-------|--3--2--2--2--L--3--2--2--|
--1--0--0--0--L--1--0--0--|--0-------3-------2----|--1--0--0--0--L--1--0--0--|


  E  E  E  E  E  E  E  E     E  E  E  E  E  E  E  E     Q    E  Q    E  Q     
--------------------------|--------------------------|-----------------------|
--------------------------|--------------------------|-----------------------|
--------------------------|--------------------------|-----------------------|
--------------------------|--------------------------|-----------------------|
-----------2--5--2--5--2--|--3--2--2--2--L--3--2--2--|--2--------------------|
-----2--5-----------------|--3--2--2--2--L--3--2--2--|--2----5-------5-------|
--5-----------------------|--1--0--0--0--L--1--0--0--|--0-------3-------2----|


  E  E  E  E  E  E  E  E     E  E  E  E  E  E  E  E   
--------------------------|--------------------------|
--------------------------|--------------------------|
--------------------------|--------------------------|
--------------------------|--------------------------|
--3--2--2--2--L--3--2--2--|-----------2--5--2--5--2--|
--3--2--2--2--L--3--2--2--|-----2--5-----------------|
--1--0--0--0--L--1--0--0--|--5-----------------------|


  E  E  E  E  E  E  E  E     Q    E  Q    E  Q       E  E  E  E  E  E  E  E   
--------------------------|-----------------------|--------------------------|
--------------------------|-----------------------|--------------------------|
--------------------------|-----------------------|--------------------------|
--------------------------|-----------------------|--------------------------|
--3--2--2--2--L--3--2--2--|--2--------------------|--3--2--2--2--L--3--2--2--|
--3--2--2--2--L--3--2--2--|--2----5-------5-------|--3--2--2--2--L--3--2--2--|
--1--0--0--0--L--1--0--0--|--0-------3-------2----|--1--0--0--0--L--1--0--0--|


  E  E  E  E  E  E  E  E     E  E  E  E  E  E  E  E     Q    E  Q    E  Q     
--------------------------|--------------------------|-----------------------|
--------------------------|--------------------------|-----------------------|
--------------------------|--------------------------|-----------------------|
--------------------------|--------------------------|-----------------------|
-----------2--5--2--5--2--|--3--2--2--2--L--3--2--2--|--2--------------------|
-----2--5-----------------|--3--2--2--2--L--3--2--2--|--2----5-------5-------|
--5-----------------------|--1--0--0--0--L--1--0--0--|--0-------3-------2----|


  E  E  E  E  E  E  E  E  E  E  E  E     E  E  E  E  E  E  E  E  E  E  E  E   
--------------------------------------|--------------------------------------|
--------------------------------------|--------------------------------------|
--------------------------------------|--------------------------------------|
--------------------------------------|--------------------------------------|
--7--5--8-----5-----------------------|--7--5--8-----5-----------------------|
-----------7-----7--------------------|-----------7-----7--------------------|
--------------------5--5--5--5--5--5--|--------------------5--5--5--5--5--5--|


  E  E  E  E  E  E  E  E  E  E  E  E     E  E  E  E  E  E  E  E  E  E  E  E   
--------------------------------------|--------------------------------------|
--------------------------------------|--------------------------------------|
--------------------------------------|--------------------------------------|
--------------------------------------|--------------------------------------|
--7--5--8-----5-----------------------|--7--5--8-----5-----------------------|
-----------7-----7--------------------|-----------7-----7--------------------|
--------------------5--5--5--5--5--5--|--------------------5--5--5--5--5--5--|


  E  E  E  E  E  E  E  E  E  E  E  E     E  E  E  E  E  E  E  E  E  E  E  E   
--------------------------------------|--------------------------------------|
--------------------------------------|--------------------------------------|
--------------------------------------|--------------------------------------|
--------------------------------------|--------------------------------------|
--7--5--8-----5-----------------------|--7--5--8-----5-----------------------|
-----------7-----7--------------------|-----------7-----7--------------------|
--------------------5--5--5--5--5--5--|--------------------5--5--5--5--5--5--|


  E  E  E  E  E  E  E  E  E  E  E  E     E  E  E  E  E  E  E  E  E  E  E  E   
--------------------------------------|--------------------------------------|
--------------------------------------|--------------------------------------|
--------------------------------------|--------------------------------------|
--------------------------------------|--------------------------------------|
--7--5--8-----5-----------------------|--7--5--8-----5---------
Добавлено: 17.06.2012
Другие материалы по этой песне:

Страница создана 22.04.2012
http://primanota.ru/dream-theater/the-shattered-fortress-chords.htm
Привет, Гость.
Предлагаем пройти революционный курс по гитаре.
Подарок от PrimaNota.Ru, забирай!