PrimaNota.ru - самый крупный в мире бесплатный архив песенных текстов, аккордов, табулатур и нот


Dream Theater - Stream Of Consciousness - таба, бас-таба, видео

Регистрация Запомнить меня
Войти через:  Facebook Google Twitter Vk Yandex Mail.ru

Dream Theater - Stream Of Consciousness - таба, бас-таба, видео

Печатать
Просмотров: 262
STREAM OF CONSCIOUSNESS
As recorded by Dream Theater
From the 2003 Album TRAIN OF THOUGHT



Music by John Myung, John Petrucci, Mike Portnoy & Jordan Rudess

Gtr I (Eb Ab Db Gb Bb Eb) - 'Clean Guitar - John Petrucci'
Gtr II (Eb Ab Db Gb Bb Eb) - 'Distorted Guitar 1 - John Petrucci'
Gtr III (Eb Ab Db Gb Bb Eb) - 'Distorted Guitar 2 - John Petrucci'
Gtr IV (Eb Ab Db Gb Bb Eb) - 'Keyboards - Jordan Rudess'
Gtr V (Eb Ab Db Gb Bb Eb) - 'Distorted Guitar 3 - John Petrucci'
Gtr VI (Ab Eb Ab Db Gb Bb Eb) - 'Piano - Jordan Rudess'


   Intro
    Moderately Q=118
    (D)                   (C)
   5/4
    Gtr I
    E E E E E E E E E E   E E E E E E E E E E  4x
||----------------------|----------------------||
||o---------------------|---------------------o||
||----3-2-3-2---3---2-3-|---3-2-3-2---3---2-3--||
||--0---------0---0-----|----------------------||
||o---------------------|-3---------3---3-----o||
||----------------------|----------------------||


  Slightly Faster Q=125
  D5                                   Csus2
  Gtrs II, III
    H.                  +H               H.                  +H
|------------------------------------|---3-------------------(3)----------|
|---3-------------------(3)----------|---3-------------------(3)----------|
|---2-------------------(2)----------|---5-------------------(5)----------|
|---0-------------------(0)----------|---5-------------------(5)----------|
|---0-------------------(0)----------|---3-------------------(3)----------|
|------------------------------------|------------------------------------|
|
| Gtr IV
|   E   E   E   Q    E   E    E   Q      E   E   E   Q    E   E    E   Q
|------17------18-------17-------18--|------18------17-------18-------17--|
|------------------------------------|------------------------------------|
|------14------15-------14-------15--|------15------14-------15-------14--|
|-(12)----(12)-----(12)-----(12)-----|-(14)----(14)-----(14)-----(14)-----|
|------------------------------------|------------------------------------|
|------------------------------------|------------------------------------|


  D5                                   Csus2
                                                                       PM|
    H.                  +H               H.                  +Q        E E
|------------------------------------|---3-------------------(3)------------|
|---3-------------------(3)----------|---3-------------------(3)------------|
|---2-------------------(2)----------|---5-------------------(5)------------|
|---0-------------------(0)----------|---5-------------------(5)-------5-5--|
|---0-------------------(0)----------|---3-------------------(3)-------3-3--|
|------------------------------------|--------------------------------------


    E   E   E   Q    E   E    E   Q      E   E   E   Q    E   E    E   Q
|------17------18-------17-------18--|------18------17-------18-------17----
|------------------------------------|--------------------------------------
|------14------15-------14-------15--|------15------14-------15-------14----
|-(12)----(12)-----(12)-----(12)-----|-(14)----(14)-----(14)-----(14)-------
|------------------------------------|--------------------------------------
|------------------------------------|--------------------------------------


  Bbsus2                               A5
                                                                       PM|
    H.                  +H               H.                  +Q        E E
|---1-------------------(1)----------|-------------------------------------|
|---1-------------------(1)----------|-------------------------------------|
|---3-------------------(3)----------|---2-------------------(2)-----------|
|---3-------------------(3)----------|---2-------------------(2)-------2-2-|
|---1-------------------(1)----------|---0-------------------(0)-------0-0-|
|------------------------------------|-------------------------------------|
|
|   E   E   E   Q    E   E    E   Q      E   E   E   Q    E   E    E   Q
|------17------15-------17-------15--|------15------13-------15-------13---|
|------------------------------------|-------------------------------------|
|------14------12-------14-------12--|------12------10-------12-------10---|
|-(12)----(12)-----(12)-----(12)-----|-(10)----(10)-----(10)-----(10)------|
|------------------------------------|-------------------------------------|
|------------------------------------|-------------------------------------|


  G5              F5                E5                A5
   Q.        +Q    E  +H              Q.         +Q    E  +H
|---------------------------------|------------------------------------||
|---------------------------------|------------------------------------||
|---------------------------------|--------------------2--(2)----------||
|--5---------(5)---3--(3)---------|---2----------(2)---2--(2)----------||
|--5---------(5)---3--(3)---------|---2----------(2)---0--(0)----------||
|--3---------(3)---1--(1)---------|---0----------(0)-------------------||
|
|  E   E  E   Q    E   E   E   Q      E   E   E   Q    E   E   E   Q
|-----13-----12-------12------10--|------------------------------------||
|---------------------------------|------15------14-------11------10---||
|-----10------9--------9-------7--|------------------------------------||
|-(8)----(8)------(7)-----(7)-----|------12------11--------8-------7---||
|---------------------------------|-(10)----(10)------(7)-----(7)------||
|---------------------------------|------------------------------------||


    D5    D+5   D5  D+5  C7    C6    C7  C6
    Gtr II
    PM  PM  PM|   PM     PM  PM  PM|   PM
    E E E E E E E E Q    E E E E E E E E Q
||---------------------|--------------------|
||o--------------------|--------------------|
||---------------------|--------------------|
||----7---8-----7---8--|---8---7-----8---7--|
||o-5-5-5-5-5-5-5-5-5--|-3-3-3-3-3-3-3-3-3--|
||---------------------|--------------------|
|
|   Gtr III
|   PM  PM  PM|   PM     PM  PM  PM|   PM
|   E E E E E E E E Q    E E E E E E E E Q
||---------------------|--------------------|
||o--------------------|--------------------|
||----7---7-----7---7--|---9---9-----9---9--|
||----7---8-----7---8--|---8---7-----8---7--|
||o-5---5---5-5---5----|--------------------|
||---------------------|-8---8---8-8---8----|


  D5    D+5   D5  D+5  C7    C6    C7  C6
  PM  PM  PM|   PM     PM  PM  PM|   PM
  E E E E E E E E Q    E E E E E E E E Q
|--------------------|--------------------|
|--------------------|--------------------|
|--------------------|--------------------|
|---7---8-----7---8--|---8---7-----8---7--|
|-5-5-5-5-5-5-5-5-5--|-3-3-3-3-3-3-3-3-3--|
|--------------------|--------------------|
|
| PM  PM  PM|   PM     PM  PM  PM|   PM
| E E E E E E E E Q    E E E E E E E E Q
|--------------------|--------------------|
|--------------------|--------------------|
|---7---7-----7---7--|---9---9-----9---9--|
|---7---8-----7---8--|---8---7-----8---7--|
|-5---5---5-5---5----|--------------------|
|--------------------|-8---8---8-8---8----|


  Bbmaj7 Bb6    BbmajBb6   Am7    Am+5  Am7  Am+5
  PM   PM   PM|    PM      PM   PM  PM|    PM
  E  E E  E E E  E E  Q    E  E E E E E  E E Q
|------------------------|----------------------|
|------------------------|----------------------|
|------------------------|----------------------|
|------------------------|----------------------|
|---12---10-----12---10--|---10---8-----10---8--|
|-6--6-6--6-6-6--6-6--6--|-5--5-5-5-5-5--5-5-5--|
|
| PM   PM   PM|    PM      PM   PM  PM|    PM
| E  E E  E E E  E E  Q    E  E E E E E  E E Q
|------------------------|----------------------|
|------------------------|----------------------|
|----7----7------7----7--|----5---5------5---5--|
|----7----5------7----5--|----5---3------5---3--|
|------------------------|----------------------|
|-6----6----6-6----6-----|-5----5---5-5----5----|


  Gm7   Gm6 Fmaj7 F6   Em7   Em6   A5
  PM  PM  PM|   PM     PM  PM  PM|   PM
  E E E E E E E E Q    E E E E E E E E Q
|--------------------|-----------------------||
|--------------------|----------------------o||
|--------------------|-----------------------||
|-------------2------|-------------2---2/----||
|---8---7---------5--|---5---4-----0---0----o||
|-3-3-3-3-3-1-1-1-1--|-0-0-0-0-0-0---0-------||
|
| PM  PM  PM|   PM     PM  PM  PM|   PM
| E E E E E E E E Q    E E E E E E E E Q
|--------------------|-----------------------||
|--------------------|----------------------o||
|---3---3-----2---2--|-----------------------||
|---3---2-----2---0--|---5---5-----2---2/----||
|--------------------|---5---4-----0---0----o||
|-3---3---3-1---1----|-0---0---0-0---0-------||


  D5                         C5
 6/4                        5/4
  Gtr III
  E  E E E E E E E E E E E   E E E E E E E E  E  E
  |  | | | | | | | | | | |   | | | | | | | |  |  |
  /  / / / / / / / / / / /   / / / / / / / /  /  /

             PM  PM      PM--|         PM  PM
  E  E E E E E E E E E E E   E E E E E E E E  E  E
|--------------------------|-----------------------|
|--------------------------|-----------------------|
|----3-2-3-2---3---2-3-2---|---3-2-3-2---3----2--3-|
|-0----------0---0-------0-|-----------------------|
|--------------------------|-3---------3---3-------|
|--------------------------|-----------------------|
|
| Gtr IV
| W.                         W               +Q
|--------------------------|-----------------------|
|-6------------------------|-5---------------(5)---|
|-7------------------------|-5---------------(5)---|
|-7------------------------|-5---------------(5)---|
|--------------------------|-----------------------|
|--------------------------|-----------------------|


  D5                         C5
 6/4                        5/4
  E  E E E E E E E E E E E   E E E E E E E E  E  E
  |  | | | | | | | | | | |   | | | | | | | |  |  |
  /  / / / / / / / / / / /   / / / / / / / /  /  /

  PM         PM  PM      PM--|         PM  PM
  E  E E E E E E E E E E E   E E E E E E E E  E  E
|--------------------------|------------------------|
|--------------------------|------------------------|
|----3-2-3-2---3---2-3-2---|---3-2-3-2---3----2--3--|
|-0----------0---0-------0-|------------------------|
|--------------------------|-3---------3---3--------|
|--------------------------|------------------------|
|
| W.                         W               +Q
|--------------------------|------------------------|
|-6------------------------|-5---------------(5)----|
|-7------------------------|-5---------------(5)----|
|-7------------------------|-5---------------(5)----|
|--------------------------|------------------------|
|--------------------------|------------------------|


  A5            Bb5
 6/4
  E  E E  E E E E  E E  E E E
  |  | |  | | | |  | |  | | |
  /  / /  / / / /  / /  / / /

              PM            PM
  E  E E  E E E E  E E  E E E
|-----------------------------|
|-----------------------------|
|-----------------------------|
|----3-2--3-2------3-2--3-2---|
|-0-----------0-1-----------1-|
|-----------------------------|
|
| E  E E  E E E E  E E  E E E
|-----------------------------|
|-----------------------------|
|---10-9-10-9-----10-9-10-9---|
|-7-----------7-8-----------8-|
|-----------------------------|
|-----------------------------|


  C5           G5              A5            Bb5
 5/4                          6/4
   E  E E  E E  E  E  E E  E   E  E E  E E E E  E E  E E E
   |  | |  | |  |  |  | |  |   |  | |  | | | |  | |  | | |
   /  / /  / /  /  /  / /  /   /  / /  / / / /  / /  / / /

                PM    PM                   PM
   E  E E  E E  E  E  E E  E   E  E E  E E E E  E E  E E E
|----------------------------|------------------------------|
|----------------------------|------------------------------|
|----------------------------|------------------------------|
|-----3-2--3-2-----3----2--3-|----3-2--3-2------3-2--3-2----|
|--3-------------------------|-0-----------0-1-----------1--|
|---------------3-----3------|------------------------------|
|
|  E  E E  E E  E  E  E E  E   E  E E  E E E E  E E  E E E
|----------------------------|------------------------------|
|----------------------------|------------------------------|
|----10-9-10-9----10----9-10-|---10-9-10-9-----10-9-10-9----|
|-10-------------------------|-7-----------7-8-----------8--|
|--------------10----10------|------------------------------|
|----------------------------|------------------------------|


  F5          E5            A5            A5
 5/4                       6/4
  E  E E  E E E  E E E  E   E  E E  E E E E  E E  E E E
  |  | |  | | |  | | |  |   |  | |  | | | |  | |  | | |
  /  / /  / / /  / / /  /   /  / /  / / o /  / /  / / o

              PM   PM
  E  E E  E E E  E E E  E   E  E E  E E E E  E E  E E E
|-------------------------|-----------------------------|
|-------------------------|-----------------------------|
|-------------------------|-----------------------------|
|----3-2--3-2----3---2--3-|----3-2--3-2------3-2--3-2---|
|-------------------------|-0-------------0-------------|
|-1-----------0----0------|-------------0-------------0-|
|
| E  E E  E E E  E E E  E   E  E E  E E E E  E E  E E E
|-------------------------|-----------------------------|
|-------------------------|-----------------------------|
|---10-9-10-9---10---9-10-|---10-9-10-9-----10-9-10-9---|
|-------------------------|-7-------------7-------------|
|-8-----------7----7------|-------------7-------------7-|
|-------------------------|-----------------------------|


  A5              A5
  E  E  E  E  E E E  E  E  E  E E
  |  |  |  |  | | |  |  |  |  | |
  /  /  /  /  / o /  /  /  /  / o

  E  E  E  E  E E E  E  E  E  E E
|---------------------------------||
|---------------------------------||
|----3--2--3--2------3--2--3--2---||
|---------------------------------||
|-0---------------0---------------||
|---------------0---------------0-||
|
| E  E  E  E  E E E  E  E  E  E E
|---10--9-10--9-----10--9-10--9---||
|---11-10-11-10-----11-10-11-10---||
|---------------------------------||
|-7---------------7---------------||
|---------------7---------------7-||
|---------------------------------||


  D5    D+5   D5  D+5  C7    C6    C7  C6
 5/4
  PM  PM  PM|   PM     PM  PM  PM|   PM
  E E E E E E E E Q    E E E E E E E E Q
|--------------------|--------------------|
|--------------------|--------------------|
|--------------------|--------------------|
|---7---8-----7---8--|---8---7-----8---7--|
|-5-5-5-5-5-5-5-5-5--|-3-3-3-3-3-3-3-3-3--|
|--------------------|--------------------|
|
| Gtr III
| PM  PM  PM|   PM     PM  PM  PM|   PM
| E E E E E E E E Q    E E E E E E E E Q
|--------------------|--------------------|
|--------------------|--------------------|
|---7---7-----7---7--|---9---9-----9---9--|
|---7---8-----7---8--|---8---7-----8---7--|
|-5---5---5-5---5----|--------------------|
|--------------------|-8---8---8-8---8----|


  D5    D+5   D5  D+5  C7    C7    C7  C6
  PM  PM  PM|   PM     PM  PM  PM|   PM
  E E E E E E E E Q    E E E E E E E E Q
|--------------------|----------------------|
|--------------------|----------------------|
|--------------------|----------------------|
|---7---8-----7---8--|---8---7-----8---7----|
|-5-5-5-5-5-5-5-5-5--|-3-3-3-3-3-3-3-3-3----|
|--------------------|----------------------|
|
| PM  PM  PM|   PM     PM  PM  PM|   PM
| E E E E E E E E Q    E E E E E E E E Q
|--------------------|----------------------|
|--------------------|----------------------|
|---7---7-----7---7--|---9---9-----9---9----|
|---7---8-----7---8--|---8---7-----8---7----|
|-5---5---5-5---5----|----------------------|
|--------------------|-8---8---8-8---8------|


  Bbmaj7 Bb6    BbmajBb6   Am7    Am+5  Am7  Am+5
  PM   PM   PM|    PM      PM   PM  PM|    PM
  E  E E  E E E  E E  Q    E  E E E E E  E E Q
|------------------------|----------------------|
|------------------------|----------------------|
|------------------------|----------------------|
|------------------------|----------------------|
|---12---10-----12---10--|---10---8-----10---8--|
|-6--6-6--6-6-6--6-6--6--|-5--5-5-5-5-5--5-5-5--|
|
| PM   PM   PM|    PM      PM   PM  PM|    PM
| E  E E  E E E  E E  Q    E  E E E E E  E E Q
|------------------------|----------------------|
|------------------------|----------------------|
|----7----7------7----7--|----5---5------5---5--|
|----7----5------7----5--|----5---3------5---3--|
|------------------------|----------------------|
|-6----6----6-6----6-----|-5----5---5-5----5----|


  Gm7   Gm6 Fmaj7 F6   Em7   Em6   A5
  PM  PM  PM|   PM     PM  PM  PM|   PM
  E E E E E E E E Q    E E E E E E E E Q
|--------------------|---------------------||
|--------------------|---------------------||
|--------------------|---------------------||
|-------------2------|-------------2---2---||
|---8---7---------5--|---5---4-----0---0---||
|-3-3-3-3-3-1-1-1-1--|-0-0-0-0-0-0---0-----||
|
| PM  PM  PM|   PM     PM  PM  PM|   PM
| E E E E E E E E Q    E E E E E E E E Q
|--------------------|---------------------||
|--------------------|---------------------||
|---3---3-----2---2--|---------------------||
|---3---2-----2---0--|---5---5-----2---2---||
|--------------------|---5---4-----0---0---||
|-3---3---3-1---1----|-0---0---0-0---0-----||


    E5          F5
   4/4
    Gtr III
     Q.          E  +H
     |           |   |
     /           /   /

     Q.          E  +H
||------------------------------------|
||o-----------------------------------|
||------------------------------------|
||------------------------------------|
||o--2-----------3--(3)---------------|
||---0-----------1--(1)---------------|
|
|   Gtr IV
|    E.  S  +E   E  +E   E  +E   S  S
||------------------------------------|
||o-----------------------------------|
||--------------15-(15)-14-(14)-14-15-|
||--14--15-(15)-----------------------|
||o-----------------------------------|
||------------------------------------|


  G5             A5                          E5          F5
   Q.             E  +H                       Q.          E  +H
   |              |   |                       |           |   |
   /              /   /                       /           /   /

   Q.             E  +H                       Q.          E  +H
|------------------------------------------|-------------------------------
|------------------------------------------|--------------------------------
|------------------------------------------|-------------------------------
|------------------------------------------|--------------------------------
|--5--------------7--(7)-------------------|--2-----------3--(3)------------
|--3--------------5--(5)-------------------|--0-----------1--(1)------------

|  E   S  S S  S  E  +S   e  S  S  S  S  S    E.  S  +E   E  +E   E  +E   S  S
|--------12---13-12-(12)-------------------|--------------------------------
|-14--15-----------------15-14-------------|--------------------------------
|------------------------------15-14-12----|-------------15-(15)-14-(14)-14-
|---------------------------------------15-|-14--15-(15)--------------------
|------------------------------------------|--------------------------------
|------------------------------------------|--------------------------------


  1.                            2.
  C#5            D5              G5X E5VII   F5VD5I
   Q.             E  +H           E.  S  +E   E  H
   |              |   |           |   |   |   |  |
   /              /   /           /   /   /   /  /

   ~~~
   Q.             E  +H           E.  S  +E   E  H
|-----------------------------||----------------------||
|----------------------------o||----------------------||
|-----------------------------||----------------------||
|-----------------7--(7)------||-/5-------------------||
|--4--------------5--(5)-----o||------7--(7)--8--5----||
|-----------------------------||----------------------||
|
|  E   S  S S  S  E  +Q.   E      E.  S  +E   E  H
|--------12---13--------------||-15--12-(12)-13-------||
|-14--15---------15-(15)-----o||----------------15----||
|-----------------------------||----------------------||
|-----------------------------||----------------------||
|----------------------------o||----------------------||
|-----------------------------||----------------------||


    N.C.
    Gtrs II, III
              ~~~~~~
    E. S +E   E +E  E E S S
||--------------------------|
||o-------------------------|
||--------------------------|
||--------------------------|
||o-------------------------|
||--0--1-(1)-/6-(6)-5---5-6-|
|
|   E. S +E   E +E  E E S S
||--------------------------|
||o-------------------------|
||------------3-(3)-2---2-3-|
||--2--3-(3)----------------|
||o-------------------------|
||--------------------------|


                                          ~~~~~~
  E S S S S E +S  e S S S S S   E. S +E   E +E  E E S S
|-----------------------------|--------------------------|
|-----------------------------|--------------------------|
|-----------------------------|--------------------------|
|-----------------------------|--------------------------|
|-4-5-7---8-7-(7)-5-4---------|--------------------------|
|---------------------6-5-3-1-|-0--1-(1)-/6-(6)-5---5-6--|
|
| E S S S S E +S  e S S S S S   E. S +E   E +E  E E S S
|-----0---1-0-(0)-------------|--------------------------|
|-2-3-------------3-2---------|--------------------------|
|---------------------3-2-0---|-----------3-(3)-2---2-3--|
|---------------------------3-|-2--3-(3)-----------------|
|-----------------------------|--------------------------|
|-----------------------------|--------------------------|


  1.                          2.
  N.C.
                   ~~~~~~~               ~~~~~~
   E S S +S  S E S E. +Q       E S S S S E +Q   S e S
|---------------------------||------------------------||
|--------------------------o||------------------------||
|---------------------------||------------------------||
|-/5-5-2-(2)-2-3-3----------||------------------------||
|------------------5--(5)--o||-4-5-7---8-5-(5)--3-----||
|---------------------------||--------------------6-5-||
|
|  E S S +S  S E S E. +Q       E S S S S E +Q   S e S
|--3-3-0-(0)-0-1-1----------||-----0---1--------------||
|------------------3--(3)--o||-2-3-------3-(3)--1-----||
|---------------------------||--------------------3-2-||
|---------------------------||------------------------||
|--------------------------o||------------------------||
|---------------------------||------------------------||


 Guitar Solo
    N.C.
                        ~~~~~~~~~~
     E.       S  +E     E     +E     E   E     S  S
|---------------------------------------------------|
|---------------------------------------------------|
|---------------------------------------------------|
|---------------------------------------------------|
|---------------------------------------------------|
|----0--------1--(1)---/6-----(6)----5---------5--6-|
|
|    S   S S  S   S  S  S  S   S   e   S S  S  S  S
|---10--10-x-10------x-10-10---x--10---x-x--x-10-10-|
|---10--10-x-10------x-10-10---x--10---x-x--x-10-10-|
|---------------------------------------------------|
|---------------------------------------------------|
|---------------------------------------------------|
|---------------------------------------------------|
|
| Gtr V
|             ~~~~~~~~~~~~~~~~~~~~
| a  E.       S  +Q           +Q         S  S  S  S
|---------------------------------------------------|
|-8s10-------10-(10)---------(10)--------------8-10-|
|----------------------------------------9-10-------|
|---------------------------------------------------|
|---------------------------------------------------|
|---------------------------------------------------|


                                                                                   ~~~~~~~~~~
   E     S  S   S   S     E    +S       e       S S S    S  S    E.       S +E     E    +E      E   E    S  S
|-------------------------------------------------------------|------------------------------------------------|
|-------------------------------------------------------------|------------------------------------------------|
|-------------------------------------------------------------|------------------------------------------------|
|-------------------------------------------------------------|------------------------------------------------|
|--4-----5--7-------8-----7----(7)------5-------4-------------|------------------------------------------------|
|-------------------------------------------------6-5----3--1-|--0--------1-(1)---/6----(6)-----5--------5--6--|
|
|  S   S S  S   S   S     S  S  S       e       S S S    S  S    S   S S  S  S  S  S  S  S    e   S S S  S  S
|-10--10-x-10-------x----10-10--x------10-------x-x-x---10-10-|-10--10-x-10-----x-10-10--x---10---x-x-x-10-10--|
|-10--10-x-10-------x----10-10--x------10-------x-x-x---10-10-|-10--10-x-10-----x-10-10--x---10---x-x-x-10-10--|
|-------------------------------------------------------------|------------------------------------------------|
|-------------------------------------------------------------|------------------------------------------------|
|-------------------------------------------------------------|------------------------------------------------|
|-------------------------------------------------------------|------------------------------------------------|
|
|                                                                ~~~
|  E.       S  +S   T  T  E     S      +S   +E    E   a  E       H                      +Q          S S  S  S
|-------------------------------------------------------------|------------------------------------------------|
|-11-------10-(10)-11p10--8-----------------------8---8s10----|--8----------------------(8)\-------------5--6--|
|------------------------------10b12==(10)r(10)---------------|-------------------------------------6-7--------|
|-------------------------------------------------------------|------------------------------------------------|
|-------------------------------------------------------------|------------------------------------------------|
|-------------------------------------------------------------|------------------------------------------------|


  N.C.
                              ~~~~~~~~~                                 ~~~~~~~~~~
   E    S  S +S  S  E     S   E.   +Q                E.       S  +E     E     +E     E   E     S  S
|-----------------------------------------------|---------------------------------------------------|
|-----------------------------------------------|---------------------------------------------------|
|-----------------------------------------------|---------------------------------------------------|
|-/5----5--2-(2)-2--3-----3---------------------|---------------------------------------------------|
|-----------------------------5----(5)----------|---------------------------------------------------|
|-----------------------------------------------|----0--------1--(1)---/6-----(6)----5---------5--6-|
|
|  S  S S  S  S  S  S  S  S   e  S  S   S  S  S      S   S S  S   S  S  S  S   S   e   S S  S  S  S
|-10-10-x-10-----x-10-10--x--10--x--x---x-10-10-|---10--10-x-10------x-10-10---x--10---x-x--x-10-10-|
|-10-10-x-10-----x-10-10--x--10--x--x---x-10-10-|---10--10-x-10------x-10-10---x--10---x-x--x-10-10-|
|-----------------------------------------------|---------------------------------------------------|
|-----------------------------------------------|---------------------------------------------------|
|-----------------------------------------------|---------------------------------------------------|
|-----------------------------------------------|---------------------------------------------------|
|
|                   ~~~~~~~~~                                 ~~~~~~~~~~~~~~~~~~~~
|  E    S  S +S  S  E    +Q         S   E     S   a  E.       S  +Q           +Q         S  S  S  S
|-----------------------------------------------|---------------------------------------------------|
|--5----------------3----(3)------------------8-|-8s10-------10-(10)---------(10)--------------8-10-|
|-------7--6-(6)S3------------------9--10-------|----------------------------------------9-10-------|
|-----------------------------------------------|---------------------------------------------------|
|-----------------------------------------------|---------------------------------------------------|
|-----------------------------------------------|---------------------------------------------------|


    E     S  S   S   S  E    +S   e  S   S   S   S  S
|------------------------------------------------------|
|------------------------------------------------------|
|------------------------------------------------------|
|------------------------------------------------------|
|---4-----5--7-------8--7----(7)--5--4-----------------|
|----------------------------------------6---5---3--1--|
|
|   S   S S  S   S   S  S  S  S   e  S   S   S   S  S
|--10--10-x-10-------x-10-10--x--10--x---x---x--10-10--|
|--10--10-x-10-------x-10-10--x--10--x---x---x--10-10--|
|------------------------------------------------------|
|------------------------------------------------------|
|------------------------------------------------------|
|------------------------------------------------------|
|
|   E.       S  +S   S  E     E.     S  +S   E.
|------------------------------------------------------|
|-/14-------11-(11)-14s10----\8-----10-(10)-11---------|
|------------------------------------------------------|
|------------------------------------------------------|
|------------------------------------------------------|
|------------------------------------------------------|


  N.C.
                       ~~~~~~~~~~~
    E.       S  +E     E     +E      E    E     S  S
|----------------------------------------------------|
|----------------------------------------------------|
|----------------------------------------------------|
|----------------------------------------------------|
|----------------------------------------------------|
|---0--------1--(1)---/6-----(6)-----5----------5--6-|
|
|   S   S S  S   S  S  S  S   S    e   S  S  S  S  S
|--10--10-x-10------x-10-10---x---10---x--x--x-10-10-|
|--10--10-x-10------x-10-10---x---10---x--x--x-10-10-|
|----------------------------------------------------|
|----------------------------------------------------|
|----------------------------------------------------|
|----------------------------------------------------|
|
|            ~~~~~~~
|   E.       S  +Q           +E      E    S  S  S  S
|----------------------------------------------------|
|-/14-------14-(14)---------(14)\--------------14-15-|
|----------------------------------------14-15-------|
|----------------------------------------------------|
|----------------------------------------------------|
|----------------------------------------------------|


                        ~~~~~~~~~
   E        S  S  S  S  E    +Q       S e        S
|--------------------------------------------------||
|--------------------------------------------------||
|--------------------------------------------------||
|--------------------------------------------------||
|--4--------5--7-----8--5----(5)------3------------||
|---------------------------------------6--------5-||
|
|  S  S     S  S  S  S  S  S  S   e S S S   S    S
|-10-10-----x-10-----x-10-10--x--10-x-x-x--10---10-||
|-10-10-----x-10-----x-10-10--x--10-x-x-x--10---10-||
|--------------------------------------------------||
|--------------------------------------------------||
|--------------------------------------------------||
|--------------------------------------------------||
|
|                             ~~~
|  S  T  T  S  S  S  S  S  S  Q.           +E
|-------------------------15-17-----------(17)\----||
|-17-15p14-15-17-18-17-18--------------------------||
|--------------------------------------------------||
|--------------------------------------------------||
|--------------------------------------------------||
|--------------------------------------------------||


 Synth Solo
  E5                F5
  Gtrs II, III
  Q.                 E  +H
  |                  |   |
  /                  /   /

  Gtr IV
  S   S  S  S  S  S  E  +E    Q    S  S
|---------------------------------------|
|----------------15-17-(17)--15---15-17-|
|-------14-15-17----15-(15)-(15)--------|
|----17---------------------------------|
|---------------------------------------|
|---------------------------------------|


  G5             A5                          Bb5               C#5
   Q.             E  +H                      Q.                 E  +H
   |              |   |                      |                  |   |
   /              /   /                      /                  /   /

   E   S  S S  S  E  +S   e  S  S  S  S  S   S   S  S  S  S  S  E  +E    Q     E
|-----15-17---18-17-(17)-15----------------|---------------------------------------|
|-18------------------------18-17-15-------|----------------15-17-(17)--18----20---|
|-15-------------15-(15)-------------17-15-|-------14-15-17----18-(18)-(18)--(18)--|
|------------------------------------------|----17-------------19-(19)-(19)--(19)--|
|------------------------------------------|---------------------------------------|
|------------------------------------------|---------------------------------------|


  D5             E5VII   A5XIIE5                F5
   Q.            E  +Q   Q    Q.                 E  +H
   |             |   |   |    |                  |   |
   /             /   /   /    /                  /   /

   S    S    Q.     +H        S   S  S  S  S  S  E  +E    Q    S  S
|---------------------------|---------------------------------------|
|-18---17-------------------|----------------15-17-(17)--15---15-17-|
|-----------19-----(19)-----|-------14-15-17----15-(15)-(15)--------|
|-19--(19)-(19)----(19)-----|----17---------------------------------|
|---------------------------|---------------------------------------|
|---------------------------|---------------------------------------|


  G5             A5
   Q.             E  +H
   |              |   |
   /              /   /

   E   S  S S  S  E  +S   e  S  S  S  S  S
|-----15-17---18-17-(17)-15----------------|
|-18------------------------18-17-15-------|
|-15-------------15-(15)-------------17-15-|
|------------------------------------------|
|------------------------------------------|
|------------------------------------------|


  Bb5               C5                   D5
  Q.                 E  +H                W
  |                  |   |                |
  /                  /   /                /

  S   S  S  S  S  S  E  +E    Q     E     S   S    Q.    +H
|--------------------------------------|------------------------||
|----------------15-17-(17)--18----20--|-18--17-----------------||
|-------14-15-17----17-(17)-(17)--(17)-|----------19----(19)----||
|----17--------------------------------|-19-(19)-(19)---(19)----||
|--------------------------------------|------------------------||
|--------------------------------------|------------------------||


    A5
    Gtrs II, III
     E.  S Q         S   e  S E.  S
||----------------------------------|
||o---------------------------------|
||---2-------------------2--2-2-----|
||---2-------------------2--2-2-----|
||o--0-------------------0--0-0-----|
||----------------------------------|
|
|   Gtrs I, IV
|    E.  S S  S  E  +S   e  S E.  S
||----------------------------------|
||o-10-------10-11-(11)-------------|
||------12--------------------9-----|
||----------------------11-12----12-|
||o---------------------------------|
||----------------------------------|


  E    S S   S  E.     H                 E.  S Q         S   e  S E.  S
|-------------------------------------|----------------------------------|
|-------------------------------------|----------------------------------|
|------2-2---2--2---------------------|--2-------------------2--2-2------|
|------2-2---2--2---------------------|--2-------------------2--2-2------|
|------0-0---0--0---------------------|--0-------------------0--0-0------|
|-------------------------------------|----------------------------------|
|
| S S  E    +S  e   S  E  S S S  e  S    E.  S S  S  E  +S   e  S E.  S
|-------------------------------------|----------------------------------|
|-------------------------------------|-10-------10-11-(11)--------------|
|---9-10---(10)-9--10-12-10-9---------|-----12--------------------9------|
|-------------------------------12-11-|---------------------11-12----12--|
|-------------------------------------|----------------------------------|
|-------------------------------------|----------------------------------|


  1.
  A5
                     |-3-|  |--3--|
  E    E  +S  E.     S S S  S S   S S  S  e
|--------------------------------------------||
|-------------------------------------------o||
|------2--(2)---------------0-------0--2--3--||
|------2--(2)-----------------2h==3----------||
|------0--(0)--------0h1h3------------------o||
|--------------------------------------------||
|
| S S  E  +S  e   S  E      S   S   S  S  E
|--------------------------------------------||
|-------------------------------------11----o||
|---9-10-(10)-9--10-12-----10---9--------12--||
|--------------------------------------------||
|-------------------------------------------o||
|--------------------------------------------||


 2.
                     |-3-|  |--3--|
  E    E  +S  E.     S S S  S S   S S  S  e
|-------------------------------------------||
|-------------------------------------------||
|------2--(2)-----------------------0--2--3-||
|------2--(2)------------3--0h2h==3---------||
|------0--(0)--------0h1--------------------||
|-------------------------------------------||
|
| S S  E  +S  e   S  E      S   S   S  S  E
|-------------------------------------------||
|-------------------------------------11----||
|---9-10-(10)-9--10-12-----10---9--------12-||
|-------------------------------------------||
|-------------------------------------------||
|-------------------------------------------||


    (A)
     S  S S  S S  S  S S   S   S S  S S  S S  S
||----------------------------------------------|
||o---------------------------------------------|
||----------------------------------------------|
||----------------------------------------------|
||o-12--0-0-10-0-12-13-0---0---4-0--5-7--0-0--5-|
||----------------------------------------------|
|
|    E.      S S  S  E    +S   e    S E.      S
||----------------------------------------------|
||o-10-----------10-11---(11)-------------------|
||----------12------------------------9---------|
||----------------------------11---12--------12-|
||o---------------------------------------------|
||----------------------------------------------|


  S S  S S   S  S S  S  S S  S S S  S S  S
|-------------------------------------------|
|-------------------------------------------|
|-------------------------------------------|
|-------------------------------------------|
|-0-7--8-0---0--7-0--8-10-0--8-7-0--5-0--4--|
|-------------------------------------------|
|
| S S  E    +S  e    S  E    S S S  e    S
|-------------------------------------------|
|-------------------------------------------|
|---9-10---(10)-9---10-12---10-9------------|
|----------------------------------12---11--|
|-------------------------------------------|
|-------------------------------------------|


  (A)
   S  S S  S S  S  S S   S   S S  S S  S S  S
|---------------------------------------------|
|---------------------------------------------|
|---------------------------------------------|
|---------------------------------------------|
|-12--0-0-10-0-12-13-0---0---4-0--5-7--0-0--5-|
|---------------------------------------------|
|
|  E.      S S  S  E    +S   e    S E.      S
|---------------------------------------------|
|-10-----------10-11---(11)-------------------|
|---------12------------------------9---------|
|---------------------------11---12--------12-|
|---------------------------------------------|
|---------------------------------------------|


  S S  S S   S  S S  S  S S  S S S  S  S S
|-------------------------------------------||
|------------------------------------------o||
|-------------------------------------------||
|-------------------------------------------||
|-0-7--8-0---0--7-0--8-10-0--8-7-0-13-10-0-o||
|-------------------------------------------||
|
| S S  E    +S  e    S  E    S S S  S  E
|-------------------------------------------||
|----------------------------------11------o||
|---9-10---(10)-9---10-12---10-9------12----||
|-------------------------------------------||
|------------------------------------------o||
|-------------------------------------------||


  Asus4          Gm6          Em6    F6             (C#)    (D)    Dm
  Gtr VI
    E.  S +E      E  +S  E.   Q      E.     S +E    E   +S  E.     E   E
|----------------------------------|---------------------------------------|
|---3---3-(3)-----5--(5)-5----2----|-3------3-(3)--------------------------|
|---2---2-(2)-----3--(3)-3----0----|-2------2-(2)------------------2---2---|
|---2---2-(2)-----5--(5)-5----2----|-3------3-(3)------------------3---3---|
|---0---0-(0)----------------------|----------------4---(4)-5------5---5---|
|-----------------3--(3)-3----0----|-1------1-(1)--------------------------|
|----------------------------------|----------------4---(4)-5------5---5---|
|
| Gtr II
|                 ~~~~~~~~    ~~          ~~~~~~~~
|   E.  S  S   S  E  +S  e  S E. S   S  S E   +S  e   S  E     S S S e   S
|----------------------------------|---------------------------------------|
|-/10---------10-11-(11)s2--3-5--3-|----5-6---(6)-5---6--8-----6-5---------|
|------12--------------------------|---------------------------------7---6-|
|----------------------------------|---------------------------------------|
|----------------------------------|---------------------------------------|
|----------------------------------|---------------------------------------|


  Asus4          Bbmaj7       Em6add1F6     Em6add11Dm
    E.  S +E      E  +S  E.   Q      E.     S +E    E   +Q      Q
|---5---5-(5)-----5--(5)-5----5----|-5------5-(5)---5---(5)-----5-------|
|---5---5-(5)-----6--(6)-6----5----|-6------5-(5)---3---(3)-----3-------|
|---7---7-(7)-----7--(7)-7----6----|-7------6-(6)-----------------------|
|-----------------------------5----|--------5-(5)---3---(3)-----3-------|
|----------------------------------|------------------------------------|
|---5---5-(5)-----6--(6)-6----0----|--------0-(0)-----------------------|
|----------------------------------|-8--------------5---(5)-----5-------|
|
|                 ~~~~~~~~    ~~          ~~~~~~~~
|   E.  S  S   S  E  +S  e  S E. S   S  S E   +S  e   S  E  S S S  S E
|----------------------------------|------------------------------------|
|-/10---------10-11-(11)s2--3-5--3-|----5-6---(6)-5---6--8--6-5---11-8--|
|------12--------------------------|------------------------------------|
|----------------------------------|------------------------------------|
|----------------------------------|------------------------------------|
|----------------------------------|------------------------------------|


  Asus4          Gm6          Em6    F6               (C#)     (D)     Dm
    E.  S +E      E  +S  E.   Q      E.      S  +E    E    +S  E.      E    E
|----------------------------------|--------------------------------------------|
|---3---3-(3)-----5--(5)-5----2----|-3-------3--(3)-----------------------------|
|---2---2-(2)-----3--(3)-3----0----|-2-------2--(2)--------------------2----2---|
|---2---2-(2)-----5--(5)-5----2----|-3-------3--(3)--------------------3----3---|
|---0---0-(0)----------------------|------------------4----(4)-5-------5----5---|
|-----------------3--(3)-3----0----|-1-------1--(1)-----------------------------|
|----------------------------------|------------------4----(4)-5-------5----5---|
|
|                 ~~~~~~~~    ~~           ~~~~~~~~~
|   E.  S  S   S  E  +S  e  S E. S   S  S  E    +S  e    S  E      S S S  e   S
|----------------------------------|--------------------------------------------|
|-/10---------10-11-(11)s2--3-5--3-|----5--6----(6)-5----6--8------6-5----------|
|------12--------------------------|--------------------------------------7---6-|
|----------------------------------|--------------------------------------------|
|----------------------------------|--------------------------------------------|
|----------------------------------|--------------------------------------------|
|
| Gtr III
|                 ~~~~~~~~    ~~           ~~~~~~~~~
|   E.  S  S   S  E  +S  e  S E. S   S  S  E    +S  e    S  E      S S S  e   S
|----------------------------------|--------------------------------------------|
|-/14---------14-15-(15)s5--6-8--6-|----8-10---(10)-8---10-11-----10-8----------|
|------15--------------------------|-------------------------------------10---9-|
|----------------------------------|--------------------------------------------|
|----------------------------------|--------------------------------------------|
|----------------------------------|--------------------------------------------|


  Asus4          Bbmaj7         Em6add11 F6       Em6add11  Dm
    E.  S +E      E  +S   E.     Q       E.       S  +E     E    +H
|---5---5-(5)-----5--(5)--5------5-----|-5--------5--(5)----5----(5)----------------||
|---5---5-(5)-----6--(6)--6------5-----|-6--------5--(5)----3----(3)----------------||
|---7---7-(7)-----7--(7)--7------6-----|-7--------6--(6)----------------------------||
|--------------------------------5-----|----------5--(5)----3----(3)----------------||
|--------------------------------------|--------------------------------------------||
|---5---5-(5)-----6--(6)--6------0-----|----------0--(0)----------------------------||
|--------------------------------------|-8------------------5----(5)----------------||
|
|                 ~~~~~~~        ~~~            ~~~~~~~~~
|   E.  S  S   S  E  +S   e   S  E.  S   S   S  E    +S   e    S  E   S  S S  S  E
|--------------------------------------|-------------------------------------15-----||
|-/10---------10-11-(11)-10--11-14-----|----14-15---(15)-14---15-17--15-14------17--||
|------12---------------------------15-|--------------------------------------------||
|--------------------------------------|--------------------------------------------||
|--------------------------------------|--------------------------------------------||
|--------------------------------------|--------------------------------------------||
|
|                 ~~~~~~~        ~~~            ~~~~~~~~~
|   E.  S  S   S  E  +S   e   S  E.  S   S   S  E    +S   e    S  E   S  S S  S  E
|--------------------------------------|-------------------------15----------18-15--||
|-/14---------14-15-(15)-14--15-17--15-|----17-18---(18)-17---18-----18-17----------||
|------15------------------------------|--------------------------------------------||
|--------------------------------------|--------------------------------------------||
|--------------------------------------|--------------------------------------------||
|--------------------------------------|--------------------------------------------||


 Guitar Solo
  Dm                              C
 5/8
   E.             E          S     E          E
|--------------------------------------------------------|
|--3--------------3----------------1----------1----------|
|--2--------------2----------------0----------0----------|
|--3--------------3----------------2----------2----------|
|--5--------------5----------0-----3----------3----------|
|--------------------------------------------------------|
|--------------------------------------------------------|
|
| Gtr V
|  |-----------10:6-------------|  |---------7---------|
|  S  S  S  S  S  S  S  S  S    S  S  S  S  S    S  S  S
|-10s17-17-17-17-17-17-17-17---17-17-17-17S22s==20-20p18-|
|--------------------------------------------------------|
|--------------------------------------------------------|
|--------------------------------------------------------|
|--------------------------------------------------------|
|--------------------------------------------------------|


  Bb                             Am
   E.            E          S     E                 E
|-----------------------------------------------------------|
|-----------------------------------------------------------|
|--3-------------3----------------2-----------------2-------|
|--3-------------3----------------2-----------------2-------|
|--5-------------5----------------3-----------------3-------|
|--6-------------6----------1-----5-----------------5-------|
|-----------------------------------------------------------|
|
|  |------------9:6------------|                    |--3--|
|  S  S  S  S  S    S  S  S    S  T  T  X  X  X  X  S  S  S
|-20h22p20p18-20p==18p17h18---20p18s15h18-18p17h18p17-15-17-|
|-----------------------------------------------------------|
|-----------------------------------------------------------|
|-----------------------------------------------------------|
|-----------------------------------------------------------|
|-----------------------------------------------------------|


  Gm                                     F
 6/8
   E.                    E          S     E        E        E
|----------------------------------------------------------------------------|
|----------------------------------------------------------------------------|
|--0---------------------0---------------------------------------------------|
|--0---------------------0----------------3--------3--------3----------------|
|--1---------------------1----------------3--------3--------3----------------|
|--3---------------------3----------------5--------5--------5----------------|
|-----------------------------------5-----8--------8--------8----------------|
|
|  |---------------10:6----------------|  |--------------9:6---------------|
|  S   T  T  T  T  S  S  S  S  S  S    S  S  S  S  S  S  S  T  T  T  T  T  T
|-18--18p17------------------------------------------------------------------|
|-----------20p18-22p20p18-20h22p20p==18-18p17p15h17h18-15-17-17-------15-15-|
|----------------------------------------------------------------17-17-------|
|----------------------------------------------------------------------------|
|----------------------------------------------------------------------------|
|----------------------------------------------------------------------------|


  E                                                A7sus4        A7
   E.                    E                 S        E             E          E
|--0---------------------0------------------------------------------------------------|
|--0---------------------0--------------------------3-------------2----------2--------|
|--1---------------------1--------------------------0-------------0----------0--------|
|--2---------------------2--------------------------2-------------2----------2--------|
|--2---------------------2--------------------------0-------------0----------0--------|
|--0---------------------0-----------------0------------------------------------------|
|-------------------------------------------------------------------------------------|
|
|  |---------------------9:6---------------------|
|  T   T  S  S  T  T  T  T  T  T  T  T  T  T  T  T  X  X  T  T T  T  T  T T  T T  T T
|-------------------------------------------------------------------------------------|
|-17--17-15-13-13-13-------------13-13-------------13p11-10-10-8h10h11p10-8h10p8------|
|--------------------15-15-14h15-------15p14p13p12-------------------------------10p9-|
|-------------------------------------------------------------------------------------|
|-------------------------------------------------------------------------------------|
|-------------------------------------------------------------------------------------|


  Dm                                      C
 5/8
   E.                   E            S     E        E
|----------------------------------------------------------|
|--3--------------------3------------------1--------1------|
|--2--------------------2------------------0--------0------|
|--3--------------------3------------------2--------2------|
|--5--------------------5------------0-----3--------3------|
|----------------------------------------------------------|
|----------------------------------------------------------|
|
|  |---------------10:6-----------------|  |------6------|
|  S   S  X  X T  S  S  T T  S  S  S    S  S  S  S  S  S S
|----------------------------------------------------------|
|----------------------------------------------------------|
|-12--12-12p10p9----10-10p9----10-10-----------------------|
|----------------12---------12-----------------------------|
|--------------------------------------12h15-13h15-11h13---|
|--------------------------------------------------------8-|


  Bb                              Am
   E.             E          S     E          E
|-------------------------------------------------------|
|-------------------------------------------------------|
|--3--------------3----------------2----------2---------|
|--3--------------3----------------2----------2---------|
|--5--------------5----------------3----------3---------|
|--6--------------6----------1-----5----------5---------|
|-------------------------------------------------------|
|
|  |-----------10:6-------------|  |-------6--------|
|  S  S  S  S  S  S  S  S  S    S  S  +S   S  S  S  S
|-------------------------------------------------------|
|-------------------------------------------------------|
|-------------------------------------------------------|
|--------------------------------------------12h14h15---|
|----------10h12h13-12-12h13h==15-12-(12)s15------------|
|-10h12h13----------------------------------------------|


  Gm                              F
 6/8
   E.             E          S     E                 E            E
|----------------------------------------------------------------------------|
|----------------------------------------------------------------------------|
|--0--------------0----------------------------------------------------------|
|--0--------------0----------------3-----------------3------------3----------|
|--1--------------1----------------3-----------------3------------3----------|
|--3--------------3----------------5-----------------5------------5----------|
|----------------------------5-----8-----------------8------------8----------|
|
|  |-----------10:6-------------|                                 |---3----|
|  S  S  S  S  S  S  S  S  S    S  T  X  X  T  X  X  T  T   T  T  S  S  T  T
|----------------------------------------------------------------------------|
|---------------------------------13----------13s18p15-13-----18-17h18h20p18-|
|----------12----------12h14h==15----15p14h15-------------/17----------------|
|-12h14h15----15p12h15-------------------------------------------------------|
|----------------------------------------------------------------------------|
|----------------------------------------------------------------------------|


  E                                           A7sus4 A7
   E.                     E                 S   E  E   E
|--0----------------------0--------------------------------|
|--0----------------------0---------------------3--2---2---|
|--1----------------------1---------------------0--0---0---|
|--2----------------------2---------------------2--2---2---|
|--2----------------------2---------------------0--0---0---|
|--0----------------------0-----------------0--------------|
|----------------------------------------------------------|
|
|  |--------------10:6----------------|
|  S   T  T  T  T  S  S   S  T  T  S  E        +Q     +E
|--------------------17-/18-18h20h22-22b24====(22)---(22)r=|
|-18--17h18-18h20-20---------------------------------------|
|----------------------------------------------------------|
|----------------------------------------------------------|
|----------------------------------------------------------|
|----------------------------------------------------------|


  Dm                                   C
 5/8
   E.                    E        S     E             E
|-------------------------------------------------------------------|
|--3---------------------3--------------1-------------1-------------|
|--2---------------------2--------------0-------------0-------------|
|--3---------------------3--------------2-------------2-------------|
|--5---------------------5--------0-----3-------------3-------------|
|-------------------------------------------------------------------|
|-------------------------------------------------------------------|
|
|                                       |------------7------------|
|  S      +S   +S       +S   +S   T  T  S  S  T  T  S    S  S  T  T
|-22b24==(22)r(22)b24==(22)r(22)-------20h22-20p18p17---18h20-20p18-|
|--------------------------------20h23------------------------------|
|-------------------------------------------------------------------|
|-------------------------------------------------------------------|
|-------------------------------------------------------------------|
|-------------------------------------------------------------------|


  Bb                                     Am
   E.              E             S        E       E
|---------------------------------------------------------|
|---------------------------------------------------------|
|--3---------------3----------------------2-------2-------|
|--3---------------3----------------------2-------2-------|
|--5---------------5----------------------3-------3-------|
|--6---------------6-------------1--------5-------5-------|
|---------------------------------------------------------|
|
|  |----------------9:6----------------|  |------6------|
|  S   S  S  S  T  T  T  T  S  S    T  T  S S  S  S  S  S
|-18-----18-18-20p18------------------------0-------------|
|-----18-------------22p21S22h24---22p20-20---20-22h23p20-|
|---------------------------------------------------------|
|---------------------------------------------------------|
|---------------------------------------------------------|
|---------------------------------------------------------|


  Gm                               F
 6/8
   E.             E        S        E           E        E
|-------------------------------------------------------------------|
|-------------------------------------------------------------------|
|--0--------------0-------------------------------------------------|
|--0--------------0-----------------3-----------3--------3----------|
|--1--------------1-----------------3-----------3--------3----------|
|--3--------------3-----------------5-----------5--------5----------|
|--------------------------5--------8-----------8--------8----------|
|
|  T  T  T  T  S  S  T  T  T  X  X  T  T  T  T  S  T  T  T  X  X  S
|-------------------------------------------------------------------|
|-18h20h22p20p18----18h20h22p20p18-17h18h20p18p17----17h18h20p18p17-|
|----------------19-------------------------------17----------------|
|-------------------------------------------------------------------|
|-------------------------------------------------------------------|
|-------------------------------------------------------------------|


  E                                 A7sus4     A7
   E.              E              S E          E          E
|--0---------------0------------------------------------------------------|
|--0---------------0----------------3----------2----------2---------------|
|--1---------------1----------------0----------0----------0---------------|
|--2---------------2----------------2----------2----------2---------------|
|--2---------------2----------------0----------0----------0---------------|
|--0---------------0--------------0---------------------------------------|
|-------------------------------------------------------------------------|
|
|  |------------9:6------------|    |---------------7:6---------------|
|  S   S  S  S  T  T  T  T  S  E    S  T  T  T    T  S  S    T  T  T  T
|-16--------------------------16\-------------------17-21-----------------|
|-----17----------------14h17--------------------17---------17------------|
|--------13-------13h16---------------------18-----------------18---------|
|-----------14-14------------------------19-----------------------19------|
|-------------------------------------19-----------------------------19---|
|-------------------------------------------------------------------------|


  Dm                            C
 5/8
   E.         E          S        E                  E
|------------------------------------------------------------|
|--3----------3-------------------1------------------1-------|
|--2----------2-------------------0------------------0-------|
|--3----------3-------------------2------------------2-------|
|--5----------5----------0--------3------------------3-------|
|------------------------------------------------------------|
|------------------------------------------------------------|
|
|                                 |-----------6------------|
|  E      +E     S      +S       +S   +S        +S   S  S  S
|------------------------------------------------------------|
|-20b22==(20)r==20pb22r(20)b22==(20)r(20)b20.5-(20)-22p20s23-|
|------------------------------------------------------------|
|------------------------------------------------------------|
|------------------------------------------------------------|
|------------------------------------------------------------|


  Bb                              Am
   E.            E           S     E     E
|-----------------------------------------------------|
|-----------------------------------------------------|
|--3-------------3-----------------2-----2------------|
|--3-------------3-----------------2-----2------------|
|--5-------------5-----------------3-----3------------|
|--6-------------6-----------1-----5-----5------------|
|-----------------------------------------------------|
|
|  |------------8:6-------------|
|  S   S  S  S  +S   a  S  S    S  S  S  T     +T   S
|-----20-22-20-(20)s22-22s20--------------------------|
|-22---------------------------22p20h22-20b22-(20)-20-|
|-----------------------------------------------------|
|-----------------------------------------------------|
|-----------------------------------------------------|
|-----------------------------------------------------|


  Gm                        F
 6/8
   E.            E        S  E       E       E
|-------------------------------------------------|
|-------------------------------------------------|
|--0-------------0--------------------------------|
|--0-------------0-----------3-------3-------3----|
|--1-------------1-----------3-------3-------3----|
|--3-------------3-----------5-------5-------5----|
|-------------------------5--8-------8-------8----|
|
|                            |---4:3----|
|  S  S  S      +S   +S   S  S  S  S    S  E    S
|----------------------------------------------20p|
|-18h20-18b20==(18)r(18)----18s15s18s==15\--------|
|------------------------19-----------------------|
|-------------------------------------------------|
|-------------------------------------------------|
|-------------------------------------------------|


  E
   E.          E       S     E          E          E
|--0-----------0-------------0----------0----------0-------------|
|--0-----------0-------------0----------0----------0-------------|
|--1-----------1-------------1----------1----------1-------------|
|--2-----------2-----------
Добавлено: 16.04.2012
Другие материалы по этой песне:

Страница создана 05.03.2012
http://primanota.ru/dream-theater/stream-of-consciousness-chords.htm
Привет, Гость.
Предлагаем пройти революционный курс по гитаре.
Подарок от PrimaNota.Ru, забирай!