PrimaNota.ru - самый крупный в мире бесплатный архив песенных текстов, аккордов, табулатур и нот


Dream Theater - Status Seeker - текст песни, бас-таба, видео

Регистрация Запомнить меня
Войти через:  Facebook Google Twitter Vk Yandex Mail.ru

Dream Theater - Status Seeker - текст песни, бас-таба, видео

Печатать
Просмотров: 134
                                Status Seeker                                   
Dream Theather
Bass

     Q    E  H.           E     Q    E  H        E     Q.     E   
G||--------------------------|----------------------|------------|
D||--3-----------------------|----------------------|------------|
A||----------3------------L--|--1-------------------|--3---------|
E||--------------------------|----------1--------L--|------------|

  Q    E  H.           E     Q    E  H        E     Q.     E   
--------------------------|----------------------|------------|
--3-----------------------|----------------------|------------|
----------3------------L--|--1-------------------|--3---------|
--------------------------|----------1--------L--|------------|


  Q    E  Q    E  E  E  Q       Q    E  Q    E  E  E     E  E  Q     
-----------------------------|------------------------|-------------|
-----------------------------|------------------------|-------------|
--3-------3----3--3--3--3----|--1---------------------|--3--3--3----|
-----------------------------|----------1----1--1--1--|-------------|


  Q    E  Q    E  E  E  E  E     Q    E  Q    E  E  E     E  E  E  E   
------------------------------|------------------------|--------------|
------------------------------|--1---------------------|--------------|
--3-------3----3--3--3--3--3--|----------1----1--1--1--|--3--3--3--3--|
------------------------------|------------------------|--------------|


  Q    E  Q    E  E  E  E  E     Q    E  Q    E  E  E  E  E   
------------------------------|------------------------------|
------------------------------|--1-------3----3--3--3--3--3--|
--3-------3----3--3--3--3--3--|------------------------------|
------------------------------|------------------------------|


  Q    E  Q    E  E  E     E  E  E  E     Q    E  Q    E  E  E  E  E   
------------------------|--------------|------------------------------|
--1---------------------|--------------|--1-------3----3--3--3--3--3--|
----------1----1--1--1--|--3--3--3--3--|------------------------------|
------------------------|--------------|------------------------------|


  Q    E  Q.     Q       H           E  E  E  E  E  E  E  E   
----------------------|-----------|--------------------------|
----------------------|-----------|--------------------------|
--1-------1------1----|--0--------|--------------------------|
----------------------|-----------|--3--3--3--3--3--3--3--3--|


  E  E  E  E  E  E  E  E     E  E  E  E  E  E  E  E   
--------------------------|--------------------------|
--------------------------|--------------------------|
--------------------------|--------------------------|
--3--3--3--3--3--3--1--1--|--3--3--3--3--3--3--3--3--|


  E  E  E  E  E  E  E  E     E  E  E  E  E  E  E  E   
--------------------------|--------------------------|
--------------------------|--------------------------|
--------------------------|--------------------------|
--3--3--3--3--3--3--1--1--|--3--3--3--3--3--3--3--3--|


  E  E  E  E  E  E  E  E     E  E  E  E  E  E  E  E   
--------------------------|--------------------------|
--------------------------|--------------------------|
--------------------------|--------------------------|
--3--3--3--3--3--3--1--1--|--3--3--3--3--3--3--3--3--|


  E  E  E  E  E  E  E  E     Q    E  Q    Q.         Q    Q    E   Q.      
--------------------------|-----------------------|-----------------------|
--------------------------|-----------------------|-----------------------|
--------------------------|--5-------3----5~------|--L----5----3s--5------|
--3--3--3--3--3--3--1--1--|-----------------------|-----------------------|


  Q    E  Q    Q.        E  E  Q    E   Q.        E  E  E  Q    Q.      
----------------------|------------------------|-----------------------|
----------------------|------------------------|-----------------------|
--5-------3----5------|-----3--5----3s--5------|--5--3-----3----5------|
----------------------|------------------------|--------5--------------|


  E  E  Q    E   Q.        E  E  E  Q    Q.        E  E  Q    E   Q.      
------------------------|-----------------------|------------------------|
------------------------|-----------------------|------------------------|
-----3--5----3s--5------|--5--3-----3----5------|-----3--5----3s--5------|
------------------------|--------5--------------|------------------------|


  E  E  E  Q    Q.        E  E  Q    E   Q.        E  E  E  Q    Q.      
-----------------------|------------------------|-----------------------|
-----------------------|------------------------|-----------------------|
--5--3-----3----5------|-----3--5----3s--5------|--5--3-----3----5------|
--------5--------------|------------------------|--------5--------------|


  E  E  Q    E   Q.        E  E  E  Q    Q.        E  E  Q    E   Q.      
------------------------|-----------------------|------------------------|
------------------------|-----------------------|------------------------|
-----3--5----3s--5------|--5--3-----3----5------|-----3--5----3s--5------|
------------------------|--------5--------------|------------------------|


  E  E  E  Q    Q.        E  E  Q    E   Q.        E  E  E  E   
-----------------------|------------------------|--------------|
-----------------------|------------------------|--------------|
--5--3-----3----5------|-----3--5----3s--5------|--5--5--5--5--|
--------5--------------|------------------------|--------------|


  E  E  E  E  E  E  E  E     E  E  E  E     Q    E  Q.     Q     
--------------------------|--------------|----------------------|
--------------------------|--------------|----------------------|
--L--3--5--5--5--5--5--5--|--5--5--5--5--|--0-------1-----------|
--------------------------|--------------|-----------------3----|


  E  E  Q    E  E  E  E     Q    E  Q.     Q       Q    Q    E  Q.      
-------------------------|----------------------|----------------------|
-------------------------|----------------------|----------------------|
-------------------------|--5-------5------5----|--L----5----3--5------|
--L--3--3----3--3--1--0--|----------------------|----------------------|


  E  E  E  E  E  E  Q       E  E  E  E  E  E  E  E     E  E  E  E  E  E  E  E   
-------------------------|--------------------------|-----------------------|
-------------------------|--------------------------|-----------------------|
--0--0--0--0--0--0-------|--------------------------|--5--5--5--5--5--5--5-5|
-------------------3-----|--L--3--3--3--3--3--3--3--|-----------------------|


  E  E  E  E  E  E  E  E     E  E  E  E  E  E  E  E   
--------------------------|--------------------------|
--------------------------|--------------------------|
--5--0--0--0--1--1--1--3--|--3--3--3--3--3--3--0--0--|
--------------------------|--------------------------|


  E  E  E  E  E  E  E   E     E  E  E  E  E  E  E  E   
---------------------------|--------------------------|
-----------0--2--3--5s--7--|--------------------------|
--0--1--3------------------|--5--5--5--5--5--5--5--5--|
---------------------------|--------------------------|


  E  E  E  E  E  E  E  E     E  E  E  E  E  E  E  E     E  E  E  E  E  Q.      
--------------------------|--------------------------|----------------------|
--------------------------|--------------------------|----------------------|
--5--0--0--0--1--1--1--3--|--3--3--3--3--3--3--3--0--|-----1-----5-----3----|
--------------------------|--------------------------|----------------------|


  E  E  E  E  E  E  E  E     E  E  E  E  E  E  E  E   
--------------------------|--------------------------|
--------------------------|--------------------------|
--5--5--5--5--5--5--5--5--|--5--0--0--0--1--1--1--3--|
--------------------------|--------------------------|


  E  E  E  E  E  E  E  E     E  E  E  E  E  E  E  E   
--------------------------|--------------2--0--------|
--------------------------|-----------0--------3--2--|
--3--3--3--3--3--3--3-----|--0--1--3-----------------|
-----------------------3--|--------------------------|


  E  E  E  E  E  E  E  E     E  E  E  E  E  E  E  E   
--------------------------|--------------------------|
--------------------------|--------------------------|
--5--5--5--5--5--5--5--5--|--5--0--0--0--1--1--1--3--|
--------------------------|--------------------------|


  E  E  E  E  E  E  E  E     E  H.           E     W                 
--------------------------|---------------------|-------------------|
--------------------------|---------------------|-------------------|
--3--3--3--3--3--3--3--0--|-----1------------L--|--L----------------|
--------------------------|---------------------|-------------------|


 E  E  E  E  E  E  E  E     E  E  E  E  E  E  E  E     Q    E  E  E  E  E  E   
-------------------------|--------------------------|-----------------------|
-------------------------|--------------------------|-----------------------|
-5--3--5--3--5--5--5--5--|--5--5--5--5--5--5--5--5--|--5-------3--5--5--5--5|
-------------------------|--------------------------|-----------------------|


  E   E  E  E  H           E  E  E  E  E  E  E  E     E  E  E  E  E  E  E  E   
------------------------|--------------------------|------------------------|
--5s--7--5--------------|--------------------------|------------------------|
------------7--0--------|--5--3--5--3--5--5--5--5--|--5--5--5--5--5--5--5--5|
------------------------|--------------------------|------------------------|


  Q    E  E  E  E  E  E     E   E  E  E  H           E  E  E  E  E  E  Q     
-------------------------|------------------------|-------------------------|
-------------------------|--5s--7--5--------------|-------------------------|
--5-------3--5--5--5--5--|------------7--0--------|--5--3--5--3--5--3--5----|
-------------------------|------------------------|-------------------------|


  E  E  Q    E   E  E   E     E  E  E  Q    E  Q       E  E  E  E  E  E  E  E   
---------------------------|------------------------|-----------------------|
--------------------5s--7--|------------------------|-----------------------|
--L--5--5----3h--5---------|-----------5-------5----|--5--5--5--5--3--3--3--|
---------------------------|--5--5--5---------------|-----------------------|


  E  E  E  E  E  E  Q       E  E  Q    E   E  E   E     E  E  E  E  E  E  Q     
-------------------------|---------------------------|----------------------|
-------------------------|--------------------5s--7--|----------------------|
--5--5--5--3--3-----5----|--L--5--5----3h--5---------|----------------------|
-------------------------|---------------------------|--5--5--5--5--5--5--3-|


  W                   E  E  E  E  E  E  E  E     E  E  E  E  E  E  E  E   
-------------------|--------------------------|--------------------------|
-------------------|--------------------------|--------------------------|
-------------------|--5--5--5--5--5--5--5--5--|--5--0--0--0--1--1--1--3--|
--L----------------|--------------------------|--------------------------|


  E  E  E  E  E  E  E  E     E  E  E  E  E  E  E   E   
--------------------------|---------------------------|
--------------------------|-----------0--2--3--5s--7--|
--3--3--3--3--3--3--0--0--|--0--1--3------------------|
--------------------------|---------------------------|


  E  E  E  E  E  E  E  E     E  E  E  E  E  E  E  E   
--------------------------|--------------------------|
--------------------------|--------------------------|
--5--5--5--5--5--5--5--5--|--5--0--0--0--1--1--1--3--|
--------------------------|--------------------------|


  E  E  E  E  E  E  E  E     E  E  E  E  E  Q.        E  E  E  E  E  E  E  E   
--------------------------|------------------------|------------------------|
--------------------------|------------------------|------------------------|
--3--3--3--3--3--3--3--0--|-----1-----5-----3------|--5--5--5--5--5--5--5--5|
--------------------------|------------------------|------------------------|


  E  E  E  E  E  E  E  E     E  E  E  E  E  E  E  E   
--------------------------|--------------------------|
--------------------------|--------------------------|
--5--0--0--0--1--1--1--3--|--3--3--3--3--3--3--3-----|
--------------------------|-----------------------3--|


  E  E  E  E  E  E  E  E     E  E  E  E  E  E  E  E   
--------------2--0--------|--------------------------|
-----------0--------3--2--|--------------------------|
--0--1--3-----------------|--5--5--5--5--5--5--5--5--|
--------------------------|--------------------------|


  E  E  E  E  E  E  E  E     E  E  E  E  E  E  E  E     W                 
--------------------------|--------------------------|-------------------|
--------------------------|--------------------------|-------------------|
--5--0--0--0--1--1--1--3--|--3--3--3--3--3--3--3--0--|--L----------------|
--------------------------|--------------------------|-------------------|


  W                   W                   E  E  E  E  E  E  Q     
-------------------|-------------------|-------------------------|
-------------------|-------------------|-------------------------|
--L----------------|--L----------------|--5--3--3--5--5--3--5----|
-------------------|-------------------|-------------------------|


  Q    Q    E   Q.        E  E  E  E  E  E  Q       Q    Q    E   Q.      
-----------------------|-------------------------|-----------------------|
-----------------------|-------------------------|-----------------------|
--L----5----3s--5------|--5--3--3--5--5--3--5----|--L----5----3s--5------|
-----------------------|-------------------------|-----------------------|


  E  E  E  E  E  E  E  E     W                   E  E  E  E  E  E  Q     
--------------------------|-------------------|-------------------------|
--5--5--5--5--5--5--5-----|-------------------|-------------------------|
-----------------------3--|--L----------------|--5--3--3--5--5--3--5----|
--------------------------|-------------------|-------------------------|


  Q    Q    E   Q.        E  E  E  E  E  E  Q       Q    Q    E   Q.      
-----------------------|-------------------------|-----------------------|
-----------------------|-------------------------|-----------------------|
--L----5----3s--5------|--5--3--3--5--5--3--5----|--L----5----3s--5------|
-----------------------|-------------------------|-----------------------|


  E  E  E  E  E  E  Q       Q    Q    E   Q.        E  E  E  E  E  E  Q     
-------------------------|-----------------------|-------------------------|
-------------------------|-----------------------|-------------------------|
--5--3--3--5--5--3--5----|--L----5----3s--5------|--5--3--3--5--5--3--5----|
-------------------------|-----------------------|-------------------------|


  Q    Q    E   Q.        E  E  E  E  E  E  E  E     W                 
-----------------------|--------------------------|-------------------|
-----------------------|--5--5--5--5--5--5--5-----|-------------------|
--L----5----3s--5------|-----------------------3--|--L----------------|
-----------------------|--------------------------|-------------------|


  W                   W                   W                   W                 
-------------------|-------------------|-------------------|----------------|
-------------------|-------------------|-------------------|----------------|
--0----------------|--L----------------|--1----------------|--L-------------|
-------------------|-------------------|-------------------|----------------|


  W                   W                   W                   W                 
-------------------|-------------------|-------------------|----------------|
-------------------|-------------------|-------------------|----------------|
-------------------|-------------------|--3----------------|--L-------------|
--1----------------|--L----------------|-------------------|----------------|


  W                   W                   W                   W                 
-------------------|-------------------|-------------------|----------------|
-------------------|-------------------|-------------------|----------------|
--0----------------|--L----------------|--1----------------|--L-------------|
-------------------|-------------------|-------------------|----------------|


  W                   W                   E  E  E  E  E  E  E  E   
-------------------|-------------------|--------------------------|
-------------------|-------------------|--------------------------|
-------------------|-------------------|--3--3--3--3--3--3--3--3--|
--1----------------|--L----------------|--------------------------|


 E  E  E  E  E  E  Q       E  E  E  E  E  E  E  E    E  E  E  E  E  E  E  E   
------------------------|--------------------------|-----------------------|
------------------------|--------------------------|-----------------------|
-3--3--3--3--3--3--3----|--5--5--5--5--5--5--5--5--|-5--0--0--0--1--1--1--3|
------------------------|--------------------------|-----------------------|


  E  E  E  E  E  E  E  E     E  E  E  E  E  E  E   E   
--------------------------|---------------------------|
--------------------------|-----------0--2--3--5s--7--|
--3--3--3--3--3--3--0--0--|--0--1--3------------------|
--------------------------|---------------------------|


  E  E  E  E  E  E  E  E     E  E  E  E  E  E  E  E   
--------------------------|--------------------------|
--------------------------|--------------------------|
--5--5--5--5--5--5--5--5--|--5--0--0--0--1--1--1--3--|
--------------------------|--------------------------|


  E  E  E  E  E  E  E  E     E  E  E  E  E  Q.        E  E  E  E  E  E  E  E   
--------------------------|------------------------|------------------------|
--------------------------|------------------------|------------------------|
--3--3--3--3--3--3--3--0--|-----1-----5-----3------|--5--5--5--5--5--5--5--5|
--------------------------|------------------------|------------------------|


  E  E  E  E  E  E  E  E     E  E  E  E  E  E  E  E   
--------------------------|--------------------------|
--------------------------|--------------------------|
--5--0--0--0--1--1--1--3--|--3--3--3--3--3--3--3-----|
--------------------------|-----------------------3--|


  E  E  E  E  E  E  E  E     E  E  E  E  E  E  E  E   
--------------2--0--------|--------------------------|
-----------0--------3--2--|--------------------------|
--0--1--3-----------------|--5--5--5--5--5--5--5--5--|
--------------------------|--------------------------|


  E  E  E  E  E  E  E  E     W                   W                 
--------------------------|-------------------|-------------------|
--------------------------|-------------------|-------------------|
--5--0--0--0--1--1--1--3--|--L----------------|-------------------|
--------------------------|-------------------|--3----------------|


  E  Q.     Q.     E     E  E  E  E  E  E  E  E     E  E  E  E  E  E  E   E   
----------------------|--------------------------|-----------0--2--3--5s--7-|
-----0------1------3--|--3--3--3--3--3--3--3-----|--0--1--3-----------------|
----------------------|-----------------------3--|--------------------------|
--L-------------------|--------------------------|--------------------------|


  Q.     S S E  S S Q        E  Q.     Q.     E     Q    Q.     Q.      
--------------------------|----------------------|---------------------|
--5------5-5-5--5-5-5\----|--x--0------1------3--|--L----5------7------|
--------------------------|----------------------|---------------------|
--------------------------|----------------------|---------------------|


  Q.      Q.      Q        E  E  E  E  E  E  Q        E  Q.     Q.     E   
------------------------|--------------------------|----------------------|
--0------10------12\----|--5--5--5--5--5--5--5\----|--x--0------1------3--|
------------------------|--------------------------|----------------------|
------------------------|--------------------------|----------------------|


  H.           E  E     E  E  E  E  E  E  E  E     E  E  E  E  E  E  Q      
---------------------|-----------0--7--5--------|--------------------------|
--L------------L-----|--0--1--3-----------8--7--|--5--5--5--5--5--5--5\----|
------------------3--|--------------------------|--------------------------|
---------------------|--------------------------|--------------------------|


  E  Q.     Q.     E     H.           E  E     E  H.           E   
----------------------|---------------------|---------------------|
--x--0------1------3--|--L------------L--0--|-----1------------L--|
----------------------|---------------------|---------------------|
----------------------|---------------------|---------------------|


  W                   W                   W                 
-------------------|-------------------|-------------------|
--L----------------|--L----------------|--L----------------|
-------------------|-------------------|-------------------|
-------------------|-------------------|-------------------|


  W                  
-------------------||
-------------------||
-------------------||
-------------------||




Duration Legend
---------------
W - whole
H - half
Q - quarter
E - 8th
S - 16th
T - 32nd
X - 64th
. - note dotted
|-n-|  - n-tuplets


Tablature Legend
----------------
L - tied note
x - dead note
g - grace note
(n) - ghost note
> - accentuded note
NH - natural harmonic
AH - artificial harmonic
TH - tapped harmonic
SH - semi harmonic
PH - pitch harmonic
h - hammer on
p - pull off
b - bend
br - bendRelease
pb - preBend
pbr - preBendRelease
brb - bendReleaseBend
\n/ - tremolo bar dip
\n - tremolo bar dive
-/n - tremolo bar Release up
/n\ - tremolo bar inverted dip
/n - tremolo bar return
-\n - tremolo bar Release down
S - shift slide
s - legato slide
/ -  slide into from below or out of upwards
\ -  slide into from above or out of downwards
~ - vibrato
W - wide vibrato
tr - trill
TP - tremolo picking
T - tapping
S - slap
P - pop
< - fade in
Добавлено: 11.05.2012
Другие материалы по этой песне:

Страница создана 23.04.2012
http://primanota.ru/dream-theater/status-seeker-chords.htm
Привет, Гость.
Предлагаем пройти революционный курс по гитаре.
Подарок от PrimaNota.Ru, забирай!