PrimaNota.ru - самый крупный в мире бесплатный архив песенных текстов, аккордов, табулатур и нот


Dream Theater - Scarred - аккорды и текст, таба, бас-таба, видео

Регистрация Запомнить меня
Войти через:  Facebook Google Twitter Vk Yandex Mail.ru

Dream Theater - Scarred - аккорды и текст, таба, бас-таба, видео

Печатать
Просмотров: 220
Scarred
Dream Theater
Scarred - Guitar Solos


Author - Nir M.


SCARRED - BY DREAM THEATER 

------------------------------------------------------------------------
Tabbed by Nir M. This tab includes only the first and third solos. The
first solo is not accurate and is only a general idea! The third solo is
totally accurate but the positioning may need a little adjustment. Solo
I is *with volume pedal
------------------------------------------------------------------------

E------------------------------------|---12b-----------------------------------
B-15b--------------------------------|---------10b--12b------------------------
G--------14b--16b--------------------|--------------------10br-----------------
D------------------14b--16b----------|-----------------------------------------
A----------------------------16b-----|-----------------------------------------
E------------------------------------|----------------------------------------- 

E------------------------------------------------------------------------------
B---------7-------------------------------7------------10---------------------- 
G---7--9-----7-----7---9vvv----------7--9----7h9--7-----9--7-------------------
D---------------9---------------9-------------------9--------9--7--------------
A------------------------------------------------------------------9--7--------
E------------------------------------------------------------------------10--7- 

E-------------------7--7-----7--9b----------7--9--9br--7-----12b--12-----------
B------10--10p7h10--------7-------------/7----------------7--------------------
G--/9--------------------------------------------------------------------------
D------------------------------------------------------------------------------
A------------------------------------------------------------------------------
E------------------------------------------------------------------------------ 

E--7-----7--9br--7---7---------------------------------------------------------
B-----7-----------------10--7-----7--9---7-------------------------------------
G------------------------------9------------9--7-------------------------------
D-------------------------------------------------9--7-------------------------
A-------------------------------------------------------9--7------------------
E------------------------------------------------------------------------------ solo III 

E------------------------------------------------------------------------------
B---------------------------------------------------8-------7--------5/75-----
G---------9br--------9br--------9br------12b-----------------------------------
D----12-------12--12-------12-------12---------5/9-----9/7-----7/5-------------
A------------------------------------------------------------------------------
E------------------------------------------------------------------------------ 

E------------------------------------------------------------------------------
B---------------------------14--15--14----15-----17--------14--15--------------
G---------------14--16--18--------------------16-----16b-----------16----------
D---14--16--18-----------------------------------------------------------------
A------------------------------------------------------------------------------
E------------------------------------------------------------------------------ 

E-------4b---7--5--4-----------------------------------------------------------
B----------------------8--7--6--5--------------5b------------------------------
G---7-------------------------------8--7------------7h9p7/6--------------------
D-----------------------------------------7------------------7-----------------
A--------------------------------------------------------------7---------------
E------------------------------------------------------------------------------ *sweep picking 

E------------------------------------------------------------------------------
B-------------------------5-------------------------7--8--5--------------------
G------------------4--7-------6---------------4--7-----------6--5--4--6--------
D------7--5--4--5----------------7---5--6--7-----------------------------------
A--7---------------------------------------------------------------------------
E------------------------------------------------------------------------------ 

E-------------------------------------|-----------14--17--16--17--16------------
B-----7--10--12-----------------------|---12--14--------------------------------
G--7-------------12-------------------|-----------------------------------------
D--------------------14--12--14--16---|-----------------------------------------
A-------------------------------------|-----------------------------------------
E-------------------------------------|-----------------------------------------

E------------------------------------------------------------------------------
B--19--17--15------------------------------------------------------------------
G--------------18--16--14------------------------------------------------------
D--------------------------18--14----------------------------------------------
A----------------------------------16--14--------------------------------------
E--------------------------------------------0/-------------------------------- 

E------------------------------------------------------------------------------
B--15--14--15--14-----------15--14--15--14-----------15--14--15--14------------
G------------------16--14-------------------16--14-------------------16--14----
D------------------------------------------------------------------------------
A------------------------------------------------------------------------------
E------------------------------------------------------------------------------ 

E------------------------------------------------------------------------------
B--15--14--15--14-----------17--14--17--14----------17--14--17--14-------------
G------------------16--14-------------------16--14------------------16--14-----
D------------------------------------------------------------------------------
A------------------------------------------------------------------------------
E------------------------------------------------------------------------------

E------------------------------------------------------------------------------
B--19--14--19--14-----------19--14--19--14-------------------------------------
G------------------16--14-------------------16--14-----------------------------
D------------------------------------------------------------------------------
A------------------------------------------------------------------------------
E------------------------------------------------------------------------------ 

E--17--15--14-----14--15--14---------------------------------------------------
B-------------17--------------17--15--14---------------------------------------
G-----------------------------------------16--14--16--18--16--14---------------
D-----------------------------------------------------------------17--16--14---
A------------------------------------------------------------------------------
E------------------------------------------------------------------------------ 

E------------------------------------------------------------------------------
B------------------------------------------------------------------------------
G------------------------------------------------------------------------------
D------14--16--14--------------------------------------------------------------
A--17--------------17--16--14------14--16--14------------------14--17--16--17--
E------------------------------17--------------17--15--14--15------------------

E------------------------------------------------------------------------------
B------------------------------------------------------19--------------19--20--
G--------------------------------------18----------19----------16--19----------
D--16--19----------16--19--16--17--19------16--17----------19------------------
A----------16--17--------------------------------------------------------------
E------------------------------------------------------------------------------

E---------------------------17-------------------------------------------------
B--19b----------17--19--20------20--19--15-------------------------------------
G-------19--17--------------------------------------19-------------------------
D-------------------------------------------19--17------17--16-----------------
A---------------------------------------------------------------17--14--17-----
E------------------------------------------------------------------------------ 

E------------------------------------------------------16----------------------
B--------------------15--15b--17--15------17b--17--15--17--17--15--------------
G-------------------------------------16---------------------------16--14--13--
D--16--19----------------------------------------------------------------------
A------------------------------------------------------------------------------
E------------------------------------------------------------------------------ 

E------------------------------------------------------------------------------
B--15--------------------------------------------------------------------------
G------16--14--13----------14--13----------------------------------------------
D------------------14--12----------14--12----------14--12----------------------
A------------------------------------------14--12----------14--12--------------
E------------------------------------------------------------------15--12------ *sweep picking 

E-----------12/16--12---------------------------12/19--16----------------------
B--------9-------------12--9----------9--12--9-------------17------------------
G-----9-----------------------9----9---------------------------16--------------
D--9---------------------------------------------------------------18----------
A----------------------------------------------------------------------19------
E------------------------------------------------------------------------------


Tablature Explanation:
b = bend
br = bend and release
/ = slide up
 = slide down
h = hammer on
p = pull off
vvv = vibrato
Добавлено: 01.06.2012
Другие материалы по этой песне:

Страница создана 07.04.2012
http://primanota.ru/dream-theater/scarred-chords.htm
Привет, Гость.
Предлагаем пройти революционный курс по гитаре.
Подарок от PrimaNota.Ru, забирай!