PrimaNota.ru - самый крупный в мире бесплатный архив песенных текстов, аккордов, табулатур и нот


Dream Theater - Repentance - текст песни, таба, бас-таба, видео

Регистрация Запомнить меня
Войти через:  Facebook Google Twitter Vk Yandex Mail.ru

Dream Theater - Repentance - текст песни, таба, бас-таба, видео

Печатать
Просмотров: 393
Dream Theater: Repentance

Transcribed by: Andrew Zara (disturbedfreak0520@yahoo.com)

Date last modified: June 8, 2007

PLEASE DO NOT COPY THIS TAB TO ANOTHER SITE
WITHOUT AUTHORS' PERMISSION. THANK YOU.

Tuning: Standard (E,A,D,G,B,E)

 H         Q       Q    E.  S S S S S    S  E  E.  Q    S S   
E||------------------|---------------------|----------------------|
B||------------------|---------------------|--------9---9----9-Lb-|
G||------------------|-------------------4-|--4s-6----------------|
D||--/4s--------L----|--L----2-----4-6-7---|----------------------|
A||------------------|-----------4---------|----------------------|
E||------------------|---------------------|----------------------|


  Q       Q      S S  S S     E.  E.   E.   S  E     
--------------------------|-------------------------|
--Lpbr---------/10-9------|-------------------------|
---------------------11-9-|-------9---11---11--Lbr--|
--------------------------|--10---------------------|
--------------------------|-------------------------|
--------------------------|-------------------------|


   Q     E.   S  S  S  S  S      E.   E.   E.   E.   
----------------------------|-----------------------|
----------------------------|-------------17---17---|
--11b----L---------11-12-14-|--/16---16-------------|
----------------14----------|-----------------------|
-------------14-------------|-----------------------|
----------------------------|-----------------------|


  S  S  S  S E     S  X.  X.  X. S  S  S  T  X.    Q     S  S  Q      S  S  
----------14-Lbr-------------------------------|--------14-----------------|
-------17---------17---------------------------|-----------17--------14-15-|
----16---------------16h-17p-16-14-16----------|--------------16b----------|
--------------------------------------17-14--L-|--16-----------------------|
-----------------------------------------------|---------------------------|
-----------------------------------------------|---------------------------|


   Q.       S  S  S  S  S  S     S  E      E.      S  E      E      S  
-----------------------------|----------------------------------------|
-----------15-14-------------|--------------------16-16brb--16pbr-----|
--16b------------16-14-13----|-------------------------------------16-|
--------------------------14-|--13--Lbrb--13pbr-----------------------|
-----------------------------|----------------------------------------|
-----------------------------|----------------------------------------|


   Q    S  S  S  S  S  S  S  S     E.   E.   Q     E      
-------------------------------|-------------------------|
-------------------17-21-19-17-|--19---20---19b----Lpbr--|
----------------18-------------|-------------------------|
--18---------18----------------|-------------------------|
----------19-------------------|-------------------------|
-------------------------------|-------------------------|


  S  S  S  S  X.  X.  X. S  S  S  S  S  S  T X.      Q    S  S  E   E.      S  
------------------------------------------17-L--|--/19----L-20-17b--Lpbr------|
--L----17-19-17h-19p-17-15-17-19-20-19-20-------|--------------------------20-|
----19------------------------------------------|-----------------------------|
------------------------------------------------|-----------------------------|
------------------------------------------------|-----------------------------|
------------------------------------------------|-----------------------------|


   E.   E.   E.   S  S  S     H         Q        
--------------------------|---------------------|
--19---15-----------------|---------------------|
------------16------------|--13b--------Lpbr----|
-----------------16----16-|---------------------|
--------------------16----|---------------------|
--------------------------|---------------------|


   Q    S  S  S  S  S  S  S  S     H         Q           H         E   E   
-------------14----16----17----|--19b--------Lpbr----|--17--------19--20--|
----------14----14----14----14-|---------------------|--------------------|
--11----L----------------------|---------------------|--------------------|
-------------------------------|---------------------|--------------------|
-------------------------------|---------------------|--------------------|
-------------------------------|---------------------|--------------------|


   E.   E.   Q     E         E.   E.   Q     E          E.   E.  E.  E.   
--14---15---14b----Lpbr--|--14---15---14b----Lpbr--|---------------------|
-------------------------|-------------------------|---------------------|
-------------------------|-------------------------|--/12---11---9---7---|
-------------------------|-------------------------|---------------------|
-------------------------|-------------------------|---------------------|
-------------------------|-------------------------|---------------------|


   E  Q    Q    E        E   Q        E  Q               
----------------------|------------------------|-------||
----------------------|------------------------|-------||
----------------------|------------------------|-------||
--/7--5----L----4brb--|--L--(4)pbr----L--Lb----|-------||
----------------------|------------------------|-------||
----------------------|------------------------|-------||




Duration Legend
---------------
W - whole
H - half
Q - quarter
E - 8th
S - 16th
T - 32nd
X - 64th
. - note dotted
|-n-|  - n-tuplets


Tablature Legend
----------------
L - tied note
x - dead note
g - grace note
(n) - ghost note
> - accentuded note
NH - natural harmonic
AH - artificial harmonic
TH - tapped harmonic
SH - semi harmonic
PH - pitch harmonic
h - hammer on
p - pull off
b - bend
br - bendRelease
pb - preBend
pbr - preBendRelease
brb - bendReleaseBend
\n/ - tremolo bar dip
\n - tremolo bar dive
-/n - tremolo bar Release up
/n\ - tremolo bar inverted dip
/n - tremolo bar return
-\n - tremolo bar Release down
S - shift slide
s - legato slide
/ -  slide into from below or out of upwards
\ -  slide into from above or out of downwards
~ - vibrato
W - wide vibrato
tr - trill
TP - tremolo picking
T - tapping
S - slap
P - pop
< - fade in
^ - brush up
v - brush down
Добавлено: 01.07.2012
Другие материалы по этой песне:

Страница создана 09.03.2012
http://primanota.ru/dream-theater/repentance-chords.htm
Привет, Гость.
Предлагаем пройти революционный курс по гитаре.
Подарок от PrimaNota.Ru, забирай!