PrimaNota.ru - самый крупный в мире бесплатный архив песенных текстов, аккордов, табулатур и нот


Dream Theater - Caught In A Web - аккорды и текст, таба, бас-таба, драм-таба, видео

Регистрация Запомнить меня
Войти через:  Facebook Google Twitter Vk Yandex Mail.ru

Dream Theater - Caught In A Web - аккорды и текст, таба, бас-таба, драм-таба, видео

Печатать
Просмотров: 223
Авторы музыки: John Petrucci, John Myung, Kevin Moore, Mike Portnoy, James LaBrie
Авторы текста: John Petrucci, James LaBrie
Caught In A Web
Dream Theater
Here's the chromatic interlude part (played mostly unisono by bass,
guitar and keyboard). Petrucci plays this on a 7-string, the tab here is
for a 6-string guitar - it's transposed up an octave (except bars 2,4 and
15 to end).
This whole part makes a great warm-up excersise (when you play it
slower). It's also perfect for practicing cross-picking and
string-skipping - check out the sextuplets at the end...

[E----------------------------------------------------------------------
B----------------------------------------------------------------------
G----------------------------------------------------------------------
D---------5-4---------7-6-5-4------------------------------------------
A-4-5-6-7-----7-6-5-4---------7-6--4/5-----54-------------------------
E----------------------------------4/5-5-5-54-4-4---4-4---4-4-x-4-----

E----------------------------------------------------------------------
B----------------------------------------------------------------------
G----------------------------------------------------------------------
D-5-5-3---------6-5-4-----5-4-3-2--------------------------------------
A-------7-6-5-6-------5-4----------4/5-----54-------------------------
E----------------------------------4/5-5-5-54-4-4---4-4---4-4-x-4-----

E----------------------------------------------------------------------
B----------------------------------------------------------------------
G----------------------------------------------------------------------
D---------5-4---------7-6-5-4------5-5-3---------6-5-4-----5-4-3-------
A-4-5-6-7-----7-6-5-4---------7-6--------7-6-5-6-------5-4-------2-----
E----------------------------------------------------------------------

E----------------------------------------------------------------------
B----------------------------------------------------5-----------------
G-----------------------------5----6-5-------8-7-5---------8-7---------
D-----------5-4-7-6-----8-7------------8-7-6-------------------10-9----
A-3-4-5-7-6---------5-4-----6---7------------------7-------------------
E----------------------------------------------------------------------

E----------------------------------------------------------------------
B-------------7------------------------8-7---------10-9----------------
G:---9-8-6---------4:---------6-7-8-9-----9-8-7-6---------------------
D:-8---------------4:-6-7-8-9-----------------------------------------
A-----------9----------------------------------------------------------
E----------------------------------------------------------------------
	    H P
E----------------------------------------------------------------------
B-8-7-----8^9^8------------9-8-7------8-7-6-------------8-7-10-9----11-
G-----9-8-------10-9-8-7-8-------7-6--------4-5-6-7-9-8---------7-6----
D----------------------------------------------------------------------
A----------------------------------------------------------------------
E----------------------------------------------------------------------
    ~~~                      ~~~
E------8----9-8--------11-10-8---12-----11-10---------13-12-10----14---
B-10------------11-10-9-----------------------13-12-11-----------------
G----9---10--------------------9------3:-----------------------11------
D-------------------------------------4:-------------------------------
A----------------------------------------------------------------------
E----------------------------------------------------------------------

E-----------------------------------------------------------------------
B----------------11-9----------------------11-9-------------------------
G5:-12-11-8----9------11-9----12-11-8----9------11-9--------------------
D:---------11-------------10---------11-------------10-----------------
A-----------------------------------------------------------------------
E-----------------------------------------------------------------------

E----------------------------------------------------------------------
B--12-11-9------14-12-11-------12-11-9------14--12-11-------12-11------
G:--------11-9----------13-11---------11-9----2:-----13-11-------13-11
D:--------------------------------------------4:----------------------
A----------------------------------------------------------------------
E----------------------------------------------------------------------

E-----------------------------------------------------------------------
B--15-14-12-------17-15-14-------15-14-12-------17-15-14----------------
G5:---------14-12----------16-14----------14-12----------16-14----------
D:---------------------------------------------------------------------
A-----------------------------------------------------------------------
E-----------------------------------------------------------------------

E----------------------------------------------------------------------
B--17-18-17-15-----17-18-17-15-----20-15-20-15-----20-15-20-15---------
G:-----------17-15-----------17-15----------------------------------%-
D:-------------------------------------------17-15-----------17-15----
A----------------------------------------------------------------------
E----------------------------------------------------------------------
  w/wah-wah
E-17-18-17-15-----17-18-17-15-----20-15-20-15-----20-15-20-15----------
B------------18-15-----------18-15-------------------------------------
G--------------------------------------------17-15-----------17-15--%--
D----------------------------------------------------------------------
A----------------------------------------------------------------------
E----------------------------------------------------------------------

E-19-21-19-17-----------------------------------------------------------
B-------------19-17-----------------------------------------------------
G-------------------16-18-16-14-------------------------------------3:--
D-------------------------------16-14-------------------------------4:--
A-------------------------------------14-16-14-12-------2-4-2-0-------4-
E-------------------------------------------------14-12---------2-0---4-]

TABULATURE EXPLANATION:
    1               ~~~~    H       P          T          .
[------------------------------------------------------------------------
---9b----r---------7-------9^11---11^9--------9-14--------5-------%-----
------------------------------------------------------------------------]
  bend  release  vibrato  hammer-on/pull-off   tap    staccato   repeat
 (1 whole step)                               last bar
       1     tr~~~~~                   P.H.
[------------------------}5------------------------------------------------
---b9--b9----9(11)------}6--------4/5-8------------x------4-----------
------------------------}7-----------------0-0----------------------------]
                         PM-/
 hold bend   trill   arpeggiate    slide  palm    muted   pinch/natural
(or pre-bend)				  mute	  strum     harmonics
    1         T tr~~~               ()/         /      
[------------------------------------------------------------------------
---x---------9(16)--------------------9--------12--------14------7-----
------------------------------------------------------------------------]
 pick slide  tapped trill  whammy bar: dive   pre-dive  pull up  flutter
Добавлено: 13.12.2013
Другие материалы по этой песне:

Страница создана 26.02.2012
http://primanota.ru/dream-theater/caught-in-a-web-chords.htm
Привет, Гость.
Предлагаем пройти революционный курс по гитаре.
Подарок от PrimaNota.Ru, забирай!