PrimaNota.ru - самый крупный в мире бесплатный архив песенных текстов, аккордов, табулатур и нот


Dream Theater - Breaking All Illusions - таба, бас-таба, видео

Регистрация Запомнить меня
Войти через:  Facebook Google Twitter Vk Yandex Mail.ru

Dream Theater - Breaking All Illusions - таба, бас-таба, видео

Печатать
Просмотров: 380
Уроки эстрадного вокала в Санкт-Петербурге
Авторы музыки: John Petrucci, John Myung, Jordan Rudess
Авторы текста: John Petrucci, John Myung
This is my first tabs, and I hope you like it!

E|---------------|---------------|------------|
B|-------8-------|---------------|------------|
G|-----9---7-9---|---4-----------|------------|
D|---7---------7-|-----5-------7-|-----10-9-7-|
A|-0-------------|-0-----7---5---|---7--------|
E|---------------|---------3-----|-0----------|

E|--------------------|------------------------|-----------------------|
B|----12-8------------|------------------------|-----------------------|
G|---------9----7-9---|---4-5-7----------------|--------------12-9-----|
D|---7-------10-----7-|-------------7-----10-9-|---10-12----9-----10-9-|
A|-0------------------|-0---------5-----7------|-8-------10------------|
E|--------------------|---------3-----0--------|-----------------------|

E|---------------|---------------|------------|
B|-------8-------|---------------|------------|
G|-----9---7-9---|---4-----------|------------|
D|---7---------7-|-----5-------7-|-----10-9-7-|
A|-0-------------|-0-----7---5---|---7--------|
E|---------------|---------3-----|-0----------|

E|--------------------|------------------------|---------------------------------|
B|----12-8------------|------------------------|---------------------------------|
G|---------9----7-9---|---4-5-7----------------|--------------12-9-----9---------|
D|---7-------10-----7-|-------------7-----10-9-|---10-12----9-----10-9---10-----------|
A|-0------------------|-0---------5-----7------|-8-------10----------------12-10-|
E|--------------------|---------3-----0--------|---------------------------------|

Sorry if there are errors in the writing.

- Note : Play it twice, enjoy!
Добавлено: 09.03.2016
Другие материалы по этой песне:

Страница создана 16.03.2012
http://primanota.ru/dream-theater/breaking-all-illusions-chords.htm
Привет, Гость.
Предлагаем пройти революционный курс по гитаре.
Подарок от PrimaNota.Ru, забирай!