PrimaNota.ru - самый крупный в мире бесплатный архив песенных текстов, аккордов, табулатур и нот


Dream Theater - Another Won - текст песни, бас-таба, видео

Регистрация Запомнить меня
Войти через:  Facebook Google Twitter Vk Yandex Mail.ru

Dream Theater - Another Won - текст песни, бас-таба, видео

Печатать
Просмотров: 143
Track 1
     E  S S E  E  E  E  E  E     E  E  S S E  E  E  Q     
G||------------4--L-----------|------------4--L----------|
D||------------------0--2--4--|------------------0--2----|
A||--0--2-2-2-----------------|--0--2--2-2---------------|
E||---------------------------|--------------------------|


  E  S S E  E  S S E  E  E      E   S  S  E   E  E   E  E  E   
----------------------------|--12------------12--L--11--9-----|
--4--4-4-4--4--4-4-4--4--4--|---------------------------------|
----------------------------|------10-10-10----------------0--|
----------------------------|---------------------------------|


  E  S S E  E  E  E  E  E     E  E  S S E  E  E  Q     
------------4--L-----------|------------4--L----------|
------------------0--2--4--|------------------0--2----|
--0--2-2-2-----------------|--0--2--2-2---------------|
---------------------------|--------------------------|


  S S S S Q    S S S S Q       E  S S S S E  S S S S Q     
----------------------------|-----------------------------|
----------4------------4----|--5----------5----------5----|
--2-2-2-2------2-2-2-2------|-----2-2-2-2----2-2-2-2------|
----------------------------|-----------------------------|


  E  E  S S E  S S S S Q       E  E  S S E  S S S S Q     
----------------------------|----------------------------|
----------------------------|----------------------------|
--0--2--2-2-2--2-2-2-2-2----|--2--2--2-2-2--2-2-2-2-2----|
----------------------------|----------------------------|


                               |--3-|  |-3|    |--3-|  |-3|     
  E  E  S S E  S S S S Q       Q    E  E  Q    Q    E  E  Q     
----------------------------|----------------------------------|
----------------------------|--5----4--5--7----5----4----------|
--2--2--2-2-2--2-2-2-2-2----|--------------------------4--5----|
----------------------------|----------------------------------|


  E  E  S S E  S S S S Q       E  E  S S E  S S S S Q     
----------------------------|----------------------------|
----------------------------|----------------------------|
--0--2--2-2-2--2-2-2-2-2----|--2--2--2-2-2--2-2-2-2-2----|
----------------------------|----------------------------|


  E  E  S S E  S S S S Q       E  E  S S E  S S S S S E.   
----------------------------|-----------------------------|
----------------------------|-----------------------------|
----------------------------|--5--5--5-5-5--5-5-5-5-5-5---|
--3--3--3-3-3--3-3-3-3-3----|-----------------------------|


    E  E  E  E  E  E   E   E      E   E   E   E   E   E   Q     
|---------------------16------|--------------------------16----|
|*------------------------14--|--------------14----------------|
|*-----------7----------------|--15--15--15------15--15--------|
|---0--0--0-----0--0----------|--------------------------------|


   E   E   E   E   E   E   E   E      E   S  S  E   E   S  S  E   E   E     
----------14----------14----------|--14------------14------------14-------||
--12--12------12--12------12--12--|------12-12-12------12-12-12------12--*||
----------------------------------|--------------------------------------*||
----------------------------------|---------------------------------------||


   E   E   E   E  H           E  E  E  E  E  E  E  E   
--14----------14--L--------|--------4-----------4-----|
------12--12---------------|--------------------------|
---------------------------|--2--2-----2--2--2-----2--|
---------------------------|--------------------------|


  E  E  E  E  E  E  Q        E  E  E  E  E  E  E  E   
--------4-----------------|--------4-----------4-----|
--------------5-----------|--------------------------|
--2--2-----2-----5--L\----|--2--2-----2--2--2-----2--|
--------------------------|--------------------------|


  E  E  E  E   E  E  S E.     E  E  E  E  E  E  E  E   
---------------------------|--------4-----------4-----|
---------------------------|--------------------------|
--2--2--7--9--10--0--0-0---|--2--2-----2--2--2-----2--|
---------------------------|--------------------------|


  E  E  E  E  E  E  Q        E  E  E  E  E  E  E  E   
--------4-----------------|--------4-----------4-----|
--------------5-----------|--------------------------|
--2--2-----2-----5--L\----|--2--2-----2--2--2-----2--|
--------------------------|--------------------------|


  |----3----|    |----3----|                                  
  Q    Q    Q    Q    Q    Q         E  E  E  E  E  E  E  E   
--------------------------------||---------4--------4--------|
--2----4----5----7----5----4----||*--------------------------|
--------------------------------||*--2--2-----2--2-----2--2--|
--------------------------------||---------------------------|


  E  E  E  E  E  E  E  E     E  E  E  E  E  E  E  E   
--4--------4--------4-----|--------4--------4--------|
--------------------------|--------------------------|
-----2--2-----2--2-----2--|--2--2-----2--2-----2--2--|
--------------------------|--------------------------|


  E  E  E  E  E  E  Q        E  E  E  E  E  E  E  E   
--4-----4-----------------|--------4--------4--------|
--------------5-----------|--------------------------|
-----2-----2-----5--L\----|--2--2-----2--2-----2--2--|
--------------------------|--------------------------|


  E  E  E  E  E  E  E  E     E  E  E  E  E  E  E  E   
--4--------4--------4-----|--------------------------|
--------------------------|--------5--------5--------|
-----2--2-----2--2-----2--|--------------------------|
--------------------------|--3--3-----3--3-----3--3--|


                               |----3----|    |----3----|     
  E  E  E  E  E  E  E  E       Q    Q    Q    Q    Q    Q     
---------------------------||-----------------0----2----4----|
--------2-----2--4--2--0--*||--0----2----4-------------------|
--------------------------*||--------------------------------|
--0--0-----0---------------||--------------------------------|


  Q    E  E  Q    Q       Q    E  E  Q    Q       E  E  E  E  E  E  E  E   
--5----L--4--L----5----|--7----L--9--L----5----|--2--------2--------2-----|
-----------------------|-----------------------|--------------------------|
-----------------------|-----------------------|-----0--0-----0--0-----0--|
-----------------------|-----------------------|--------------------------|


  E  E  E  E  E  E  E  E     Q    E  E  Q    Q       Q    E     E  Q    Q     
-----2--------2-----2-----|--9----L--7--L----9----|--5----L--9g10--L----9----|
--------------------------|-----------------------|--------------------------|
--0-----0--0-----0-----0--|-----------------------|--------------------------|
--------------------------|-----------------------|--------------------------|


  H        E  Q.        Q    Q    Q    Q        Q    E   E  Q    Q     
--2------------------|-----------------2----|--12----L--10--L----9----|
---------------------|-------2--------------|-------------------------|
-----------0--0------|--0---------0---------|-------------------------|
---------------------|----------------------|-------------------------|


                          |----3----|    |----3----|     
  Q    E  E  Q    Q       Q    Q    Q    Q    Q    Q     
--7----L--5--L----4----|--------------------------------|
-----------------------|----------------------2---------|
-----------------------|--3----2----5----3---------5----|
-----------------------|--------------------------------|


  |----3----|    |----3----|                             
  Q    Q    Q    Q    Q    Q       Q    E  E  Q    Q     
----------------------4----2----|--5----L--4--L----5----|
--3----2----5----3--------------|-----------------------|
--------------------------------|-----------------------|
--------------------------------|-----------------------|


                          |--3--|  |--3--|  |--3--|        
  Q    E  E  Q    Q       E  E  E  E  E  E  E  E  E  Q     
--4----L--2--L----4----|--0--2--2--2--2--2--2-------------|
-----------------------|----------------------------------|
-----------------------|-----------------------0--0--0----|
-----------------------|----------------------------------|


  |--3--|  |--3--|  |--3--|          |--3--|  |--3--|  |--3--|  |--3--|   
  E  E  E  E  E  E  E  E  E  Q       E  E  E  E  E  E  E  E  E  E  E  E   
--0--2--2--2--2--2--2-------------|--5--4--5--7--5--4--5--4--5--7--5--4--|
----------------------------------|--------------------------------------|
-----------------------0--0--0----|--------------------------------------|
----------------------------------|--------------------------------------|


  |--3--|  |--3--|  |--3--|  |--3--|                          
  E  E  E  E  E  E  E  E  E  E  E  E     Q    Q    Q    Q     
--5--4--5--7--5--4--5--4--5--7--5--4--|--2--------------4----|
--------------------------------------|----------------------|
--------------------------------------|-------0----0---------|
--------------------------------------|----------------------|


                         |--3--|  |--3--|  |--3--|  |--3--|   
  Q    Q    Q    Q       E  E  E  E  E  E  E  E  E  E  E  E   
--5---------2---------|--5--4--5--7--5--4--5--4--5--7--5--4--|
----------------------|--------------------------------------|
-------0---------0----|--------------------------------------|
----------------------|--------------------------------------|


  |--3--|  |--3--|  |--3--|            |--3--|   |--3--|   |--3--|   |--3--|   
  E  E  E  E  E  E  E  E  E  E  E      E  E  E   E  E  E   E  E  E   E  E  E   
--5--4--5--7--5--4--5--4--5--7-----|--10--9--7--------------------------------|
-----------------------------------|------------10--9--7--10--9--7------------|
-----------------------------------|--------------------------------10--8--7--|
-----------------------------------|------------------------------------------|


   |--3--|   |--3--|   |--3--|   |--3--|                          
   E  E  E   E  E  E   E  E  E   E  E  E      H.           E  E   
--10--9--7---------------------------------|---------------------|
------------10--9--7--10--9--7-------------|---------------------|
--------------------------------10--8--7\--|--L------------L--7--|
-------------------------------------------|---------------------|


  E  E  E  E  E  Q.      H           E  E  E  E  E  E  E  E   
--9--------------9\---------------|--------4-----------4-----|
--9--------------9\---------------|--------------------------|
-----7-----7----------------------|--2--2-----2--2--2-----2--|
----------------------------------|--------------------------|


  E  E  E  E  E  E  Q        E  E  E  E  E  E  E  E   
--------4-----------------|--------4-----------4-----|
--------------5-----------|--------------------------|
--2--2-----2-----5--L\----|--2--2-----2--2--2-----2--|
--------------------------|--------------------------|


  E  E  E  E   E  E  S E.     E  E  E  E  E  E  E  E   
---------------------------|--------4-----------4-----|
---------------------------|--------------------------|
--2--2--7--9--10--0--0-0---|--2--2-----2--2--2-----2--|
---------------------------|--------------------------|


  E  E  E  E  E  E  Q        E  E  E  E  E  E  E  E   
--------4-----------------|--------4-----------4-----|
--------------5-----------|--------------------------|
--2--2-----2-----5--L\----|--2--2-----2--2--2-----2--|
--------------------------|--------------------------|


  |----3----|    |----3----|                                  
  Q    Q    Q    Q    Q    Q         E  E  E  E  E  E  E  E   
--------------------------------||---------4--------4--------|
--2----4----5----7----5----4----||*--------------------------|
--------------------------------||*--2--2-----2--2-----2--2--|
--------------------------------||---------------------------|


  E  E  E  E  E  E  E  E     E  E  E  E  E  E  E  E   
--4--------4--------4-----|--------4--------4--------|
--------------------------|--------------------------|
-----2--2-----2--2-----2--|--2--2-----2--2-----2--2--|
--------------------------|--------------------------|


  E  E  E  E  E  E  Q        E  E  E  E  E  E  E  E   
--4-----4-----------------|--------4--------4--------|
--------------5-----------|--------------------------|
-----2-----2-----5--L\----|--2--2-----2--2-----2--2--|
--------------------------|--------------------------|


  E  E  E  E  E  E  E  E     E  E  E  E  E  E  E  E   
--4--------4--------4-----|--------------------------|
--------------------------|--------5--------5--------|
-----2--2-----2--2-----2--|--------------------------|
--------------------------|--3--3-----3--3-----3--3--|


  |--3--|  |--3--|  |--3--|  |-3|         |----3----|    |----3----|     
  E  E  E  E  E  E  E  E  E  E  Q         Q    Q    Q    Q    Q    Q     
--------------------2-----------------||-----------------0----2----4----|
-----------2--4--5-----5--4--2--0----*||--0----2----4-------------------|
--2--4--5----------------------------*||--------------------------------|
--------------------------------------||--------------------------------|


  Q    E  E  Q    Q       Q    E  E  Q    Q     
--5----L--4--L----5----|--7----L--9--L----5----|
-----------------------|-----------------------|
-----------------------|-----------------------|
-----------------------|-----------------------|


  |--3--|  |--3--|  |--3--|  |--3--|     |--3--|  |--3--|        
  E  E  E  E  E  E  E  E  E  E  E  E     E  E  E  E  E  E  Q     
--2-----2--2--------2-----2--2--------|--2--2--2-----2--2--2----|
--------------------------------------|-------------------------|
--------------0-----------------0-----|-------------------------|
--------------------------------------|-------------------------|


  Q    E  E  Q    Q       Q    E     E  Q    Q       E  E  E  E  E  E  E  E   
--9----L--7--L----9----|--5----L--9g10--L----9----|--2--------2--------------|
-----------------------|--------------------------|--------------------3-----|
-----------------------|--------------------------|-----0--0-----0--0--------|
-----------------------|--------------------------|-----------------------1--|


  E  E  E  E  Q    Q         Q    E   E  Q    Q       Q    E  E  Q    Q     
-----3-------------3S----|--12----L--10--L----9----|--7----L--5--L----4----|
-------------------------|-------------------------|-----------------------|
--------1--1--3----------|-------------------------|-----------------------|
--1----------------------|-------------------------|-----------------------|


  |----3----|    |----3----|       |----3----|    |----3----|     
  Q    Q    Q    Q    Q    Q       Q    Q    Q    Q    Q    Q     
--------------------------------|----------------------4----2----|
----------------------2---------|--3----2----5----3--------------|
--3----2----5----3---------5----|--------------------------------|
--------------------------------|--------------------------------|


  Q    E  E  Q    Q       Q    E  E  Q    Q     
--5----L--4--L----5----|--4----L--2--L----4----|
-----------------------|-----------------------|
-----------------------|-----------------------|
-----------------------|-----------------------|


  |--3--|  |--3--|  |--3--|          |--3--|  |--3--|  |--3--|        
  E  E  E  E  E  E  E  E  E  Q       E  E  E  E  E  E  E  E  E  Q     
--0--2--2--2--2--2--2-------------|--0--2--2--2--2--2--2-------------|
----------------------------------|----------------------------------|
-----------------------0--0--0----|-----------------------0--0--0----|
----------------------------------|----------------------------------|


  |--3--|  |--3--|  |--3--|  |--3--|     |--3--|  |--3--|  |----3----|     
  E  E  E  E  E  E  E  E  E  E  E  E     E  E  E  E  E  E  Q    Q    Q     
--5--4--5--7--5--4--5--4--5--7--5--4--|--5--4--5--7--5--4--7----5----4----|
--------------------------------------|-----------------------------------|
--------------------------------------|-----------------------------------|
--------------------------------------|-----------------------------------|


  Q    Q    Q    Q       Q    Q    Q    Q     
--2--------------4----|--5---------2---------|
----------------------|----------------------|
-------0----0---------|-------0---------0----|
----------------------|----------------------|


  |--3--|  |--3--|  |--3--|  |--3--|     |--3--|  |--3--|  |--3--|         
  E  E  E  E  E  E  E  E  E  E  E  E     E  E  E  E  E  E  E  E  E  E  E   
--5--4--5--7--5--4--5--4--5--7--5--4--|--5--4--5--7--5--4--5--4--5--7-----|
--------------------------------------|-----------------------------------|
--------------------------------------|-----------------------------------|
--------------------------------------|-----------------------------------|


   |--3--|   |--3--|   |--3--|   |--3--|   
   E  E  E   E  E  E   E  E  E   E  E  E   
--10--9--7--------------------------------|
------------10--9--7--10--9--7------------|
--------------------------------10--8--7--|
------------------------------------------|


   |--3--|   |--3--|   |--3--|   |--3--|   
   E  E  E   E  E  E   E  E  E   E  E  E   
--10--9--7--------------------------------|
------------10--9--7--10--9--7------------|
--------------------------------10--8--7--|
------------------------------------------|


   |--3--|   |--3--|   |--3--|   |--3--|   
   E  E  E   E  E  E   E  E  E   E  E  E   
--10--9--7--------------------------------|
------------10--9--7--10--9--7------------|
--------------------------------10--8--7--|
------------------------------------------|


   |--3--|   |--3--|   |--3--|   |--3--|                                
   E  E  E   E  E  E   E  E  E   E  E  E     E.  S S E  E  S E  S S E   
--10--9--7--------------------------------|----------------------------|
------------10--9--7--10--9--7------------|--------2---------2------0--|
--------------------------------10--8--7--|----------------------------|
------------------------------------------|--0---0---0--0--0----0-0----|


  E  S S S S S S H           E.  S S E  E  S E  S S E   
--------------------------|----------------------------|
---------2----------------|--------2---------2------0--|
--------------------------|----------------------------|
--0--0-0---0---0----------|--0---0---0--0--0----0-0----|


                |-3-|  |-3-|  |-3-|  |-3-|                               
  E  S S S S E  S S S  S S S  S S S  S S S    E.  S S E  E  S E  S S E   
---------------------------------------7-9-|----------------------------|
---------2---------------7-9-10-7-9-10-----|--------2---------2------0--|
----------------5-7-9-10-------------------|----------------------------|
--0--0-0---0-------------------------------|--0---0---0--0--0----0-0----|


                  |-3-| |-3-|                                    
  E  S S S E  S S S S S S S S S E     E.  S S E  E  S E  S S E   
--------------------7-----7-----7--|----------------------------|
---------2-------------------------|--------2---------2------0--|
------------------5---5-5-5-5-5----|----------------------------|
--0--0-0---0--7-8------------------|--0---0---0--0--0----0-0----|


  E  S S S S E  S S S S S E  E  E     E.  S S E  E  S E  S S E   
-----------------------------------|----------------------------|
---------2------------2------2-----|--------2---------2------0--|
-----------------------------------|----------------------------|
--0--0-0---0----0-0-0---0----------|--0---0---0--0--0----0-0----|


  E  S S S S E  E  S S S S S S S S E  E     E.  S S E  E  S E  S S E   
-----------------------------------------|----------------------------|
---------2-----------------2-----2-------|--------2---------2------0--|
---------------------0-------------------|----------------------------|
--0--0-0---0----0--3---0-0---0-----0-----|--0---0---0--0--0----0-0----|


                |--3-| |--3-| |--3--|                                
  E  S S S S E  S  S S S  S S E  E  E     E.  S S E  E  S E  S S E   
---------------------------------------|----------------------------|
---------2------------------9-7--5-----|--------2---------2------0--|
---------------------7-9-10---------5--|----------------------------|
--0--0-0---0----7-10-------------------|--0---0---0--0--0----0-0----|


                |-3-| |-3-| |--3--|                                
  E  S S S S E  S S S S S S E  E  E     E.  S S E  E  S E  S S E   
----------------7-5-4----------------|----------------------------|
---------2------------7-5-4-7--5-----|--------2---------2------0--|
----------------------------------5--|----------------------------|
--0--0-0---0-------------------------|--0---0---0--0--0----0-0----|


                |-3-| |-3-| |--3--|                                          
  E  S S S S E  S S S S S S E  E  E     E  E  E  E  E  E  E  E  E  E  E  E   
-------------------------------------|--------------------------------------|
---------2------7-7-7-7-5-4-7--5-----|--------------------------------------|
----------------------------------5--|--------------------------------------|
--0--0-0---0-------------------------|--0--0--0--0--0--0--0--0--0--0--0--0--|


  E  E  E  E  E  E  E  E  E  E  E  E     Q    E  E  Q    Q    E  E  S S E   
--------------------------------------|------------------------------------|
--------------------------------------|------------------------------------|
--------------------------------------|-------------5----0----0--0--0-0-0--|
--0--0--0--0--0--0--0--0--0--0--0--0--|--3----3--3-------------------------|


  E  S S E  E  S S E  E  S S E  E  E  E     Q    E  E  Q    Q    E  E  S S E   
-----------------------------------------|------------------------------------|
-----------------------------------------|------------------------------------|
--2--2-2-2--0--0-0-0--2--2-2-2--5--4--0--|-------------5----0----0--0--0-0-0--|
-----------------------------------------|--3----3--3-------------------------|


  E  S S E  E  S S E  E  S S E  E  E  E     Q    E  E  Q    Q    E  E  S S E   
-----------------------------------------|------------------------------------|
-----------------------------------------|------------------------------------|
--2--2-2-2--0--0-0-0--2--2-2-2--5--4--0--|-------------5----0----0--0--0-0-0--|
-----------------------------------------|--3----3--3-------------------------|


  E  S S E  S S Q    S S Q    E  E  E     Q    Q    Q    Q.     E  S S E   
---------------------------------------|----------------------------------|
------------2-0-2----4-2-4----2--0-----|----------------------------------|
--2--2-2-2--------------------------2--|------------5----0------0--0-0-0--|
---------------------------------------|--2----3--------------------------|


  S S S S S S S S S  S  S  S  S  S  S  S  S  S  S  S  S  S  E   
--------------------------------------11----------12-11--------|
------------2-5-2-4-11-12-14-11-12-14----11-12-14-------12-14--|
--2-0-2-4-5----------------------------------------------------|
---------------------------------------------------------------|


  Q    Q    Q    Q    E  E  S S E     E  E  E  E  E  E  E  E  E  E  E  E   
-----------------------------------|-----4--4-----4-----------4-----4-----|
-----------------------------------|--------------------------------------|
------------5----0----0--0--0-0-0--|-----------------2-----2-----------2--|
--3----3---------------------------|--------------------------------------|


  Q    Q    Q    Q    E  E  S S E   
-----------------------------------|
-----------------------------------|
------------5----0----0--0--0-0-0--|
--3----3---------------------------|


  E.  S S S  S S E.   S  S  S  S  S  E   E   E   E   
---------------------------11-12----11--------------|
---------------------12-14-------14-----14--12------|
--------7-9-10-7-9------------------------------14--|
--7---7---------------------------------------------|


  Q    Q    Q    Q    E  E  S S E     E  S S E  E  S S E  E  S S E  E  E  E   
-----------------------------------|-----------------------------------------|
-----------------------------------|-----------------------------------------|
------------5----0----0--0--0-0-0--|--2--2-2-2--0--0-0-0--2--2-2-2--5--4--0--|
--3----3---------------------------|-----------------------------------------|


  Q    Q    Q    Q    E  E  S S E     E  S S E    Q.      E  S S E    Q.       
-----------------------------------|------------------------------------------|
-----------------------------------|------------------------------------------|
------------5----0----0--0--0-0-0--|--2--2-2-2s--18\--------------------------|
--3----3---------------------------|----------------------2--2-2-2s--19\------|


  Q    Q    Q    Q    E  E  S S E     E  S S E  E  S S E  S S S S S S E  E  E   
-----------------------------------|----------------------------2-4-2-4--2-----|
-----------------------------------|----------------------4-2-4-------------4--|
------------5----0----0--0--0-0-0--|--2--2-2-2--0--0-0-0-----------------------|
--3----3---------------------------|-------------------------------------------|


  Q    Q    Q    Q    E  E  S S E   
-----------------------------------|
-----------------------------------|
------------5----0----0--0--0-0-0--|
--3----3---------------------------|


  S S S S E    S  S  S  S  S  S E  E  E  E  E  E   
--------------------------------7-----------------|
--4-4-4-4-4s--16-16-16-16-16-16----9--------------|
--------------------------------------9--9--5-----|
-----------------------------------------------7--|


  Q    Q    Q    Q    E  E  S S E     E  S S E  E  S S E  E  S S E  E  E  E   
-----------------------------------|-----------------------------------------|
-----------------------------------|-----------------------------------------|
------------5----0----0--0--0-0-0--|--2--2-2-2--0--0-0-0--2--2-2-2--5--4--0--|
--3----3---------------------------|-----------------------------------------|


  Q    Q    Q    Q    E  E  S S E     E  E  E  E  E  E  E  E  E  E  E  E   
-----------------------------------|--------4--------4--------4--------4--|
-----------------------------------|--------------------------------------|
------------5----0----0--0--0-0-0--|-----2--------2--------2--------2-----|
--3----3---------------------------|--------------------------------------|


  Q    Q    Q    Q    E  E  S S E     E  S S E  E  S S E  E  S S E  E  E  E   
-----------------------------------|-----------------------------------------|
-----------------------------------|-----------------------------------------|
------------5----0----0--0--0-0-0--|--2--2-2-2--0--0-0-0--2--2-2-2--5--4--0--|
--3----3---------------------------|-----------------------------------------|


  Q    Q    Q    Q    Q    Q       E  S S E  E  E  E  E  E   
--------------------------------|------------4--L-----------|
--------------------------------|------------------0--2--4--|
------------5----0--------------|--0--2-2-2-----------------|
--3----3------------------------|---------------------------|


  E  E  S S E  E  E  Q       E  S S E  E  S S E  E  E   
------------4--L----------|----------------------------|
------------------0--2----|--4--4-4-4--4--4-4-4--4--4--|
--0--2--2-2---------------|----------------------------|
--------------------------|----------------------------|


   E   S  S  E   E  E   E  E  E     E  S S E  E  E  E  E  E   
--12------------12--L--11--9-----|------------4--L-----------|
---------------------------------|------------------0--2--4--|
------10-10-10----------------0--|--0--2-2-2-----------------|
---------------------------------|---------------------------|


  E  E  S S E  E  E  Q       S S S S Q    S S S S Q     
------------4--L----------|----------------------------|
------------------0--2----|----------4------------4----|
--0--2--2-2---------------|--2-2-2-2------2-2-2-2------|
--------------------------|----------------------------|


  E  S S S S E  S S S S Q       W                   W                 
-----------------------------|--4----------------|--L----------------|
--5----------5----------5----|--4----------------|--L----------------|
-----2-2-2-2----2-2-2-2------|--2----------------|--L----------------|
-----------------------------|-------------------|-------------------|


  W                   W                   W                   W                 
-------------------|-------------------|--4----------------|--L----------------|
--5----------------|--L----------------|--4----------------|--L----------------|
--5----------------|--L----------------|--2----------------|--L----------------|
--3----------------|--L----------------|-------------------|-------------------|


  W                   W                   W                 
-------------------|-------------------|--4----------------|
--5----------------|--L----------------|--4----------------|
--5----------------|--L----------------|--2----------------|
--3----------------|--L----------------|-------------------|


  W                  
--L----------------||
--L----------------||
--L----------------||
-------------------||




Duration Legend
---------------
W - whole
H - half
Q - quarter
E - 8th
S - 16th
T - 32nd
X - 64th
. - note dotted
|-n-|  - n-tuplets


Tablature Legend
----------------
L - tied note
x - dead note
g - grace note
(n) - ghost note
> - accentuded note
NH - natural harmonic
AH - artificial harmonic
TH - tapped harmonic
SH - semi harmonic
PH - pitch harmonic
h - hammer on
p - pull off
b - bend
br - bendRelease
pb - preBend
pbr - preBendRelease
brb - bendReleaseBend
\n/ - tremolo bar dip
\n - tremolo bar dive
-/n - tremolo bar Release up
/n\ - tremolo bar inverted dip
/n - tremolo bar return
-\n - tremolo bar Release down
S - shift slide
s - legato slide
/ -  slide into from below or out of upwards
\ -  slide into from above or out of downwards
~ - vibrato
W - wide vibrato
tr - trill
TP - tremolo picking
T - tapping
S - slap
P - pop
< - fade in
^ - brush up
v - brush down
Добавлено: 07.07.2012
Другие материалы по этой песне:

Страница создана 26.03.2012
http://primanota.ru/dream-theater/another-won-chords.htm
Привет, Гость.
Предлагаем пройти революционный курс по гитаре.
Подарок от PrimaNota.Ru, забирай!