PrimaNota.ru - самый крупный в мире бесплатный архив песенных текстов, аккордов, табулатур и нот


Dream Syndicate - Too Little Too Late - аккорды и текст, видео

Регистрация Запомнить меня
Войти через:  Facebook Google Twitter Vk Yandex Mail.ru

Dream Syndicate - Too Little Too Late - аккорды и текст, видео

Печатать
Просмотров: 128
Уроки эстрадного вокала в Санкт-Петербурге
Too Little Too Late
Dream Syndicate
TOO LITTLE, TOO LATE (THE DREAM SYNDICATE-Days of wine and roses-1982)
Written by Greenalex


Intro (slide guitar plays through these chords)

        C D      D C  D
E-------------------------------------------------| 
B-------5/7------7/5-/7---------------------------|
G-------5/7------7/5-/7---------------------------|
D-------5/7------7/5-/7---------------------------|
A-------------------------------------------------|
E-------------------------------------------------|


A            Bm
  We used to talk
C                 Bm
  about the best laid plans of men
A             Bm
   Nothing has changed
C                    G                  G G/F# Em
  I'll just never be frightened again


(Chorus)

Em              A
  I'm not gonna warn you
Em              A
  It's gone too far for that
Em              D
  I'm not gonna warn you


A               Bm
  We took every clue
C                     Bm
 and thought it out in, i don't...
A            Bm
  today it's dark outside
C             G                   G G/F# Em
 and now it's almost meaning less
 

-Reapeat Chorus-

Am    F      D
  Too little,  too late

  x2
E-------------------------------------------------|
B-----------2-3--------2-3-3/5-5/3-3-1-1----------|
G----2--2-4-----4-4--4-------------------4-2-4b---|
D-------------------------------------------------|
A-------------------------------------------------|
E-------------------------------------------------|

-Reapeat Chorus-

Am    F      D
  Too little,  too late

Am F D
(guitar solo)

Am    F      D
  Too little,  too late.
Добавлено: 13.08.2015
Вам также может быть интересно:
Другие материалы по этой песне:
  • Аккорды и текст

Страница создана 13.08.2015
http://primanota.ru/dream-syndicate/too-little-too-late-chords.htm
Привет, Гость.
Предлагаем пройти революционный курс по гитаре.
Подарок от PrimaNota.Ru, забирай!