PrimaNota.ru - самый крупный в мире бесплатный архив песенных текстов, аккордов, табулатур и нот


Dream Koala - We Cant Be Friends - таба, видео

Регистрация Запомнить меня
Войти через:  Facebook Google Twitter Vk Yandex Mail.ru

Dream Koala - We Cant Be Friends - таба, видео

Печатать
Просмотров: 79
-------------------------------------------------------------------------------
                             Dream Koala - we can't be friends
-------------------------------------------------------------------------------
Tabbed by:3p6yfxjle8k
E-mail:

Tabbed from ear so I have no idea if this is right but it sounds pretty accurate.
Sampled on Dojacat- no police and Mick Jenkins-Healer

Tuning:standard

Intro chords and chords repeated throughout:

e|--x---------------x--------------------------------------------------------|
B|--x---------------x--------------------------------------------------------|
G|--6---------------1--------------------------------------------------------|
D|--7---------------2--------------------------------------------------------|
A|--5---------------0--------------------------------------------------------|
E|--5---------------0--------------------------------------------------------|

   First chord: Bar A maj chord with second "A" string open
   Second chord: E maj chord with second "A" string open (same shape just slide down to
first fret)
*dont play the last two strings or it may sound different from actual song

Guitar 2:
e|--------------------------------------------------------------------------------|
B|---------------------------9/12---9------7---9----------------7---9-------------|
G|-----6-------------6---9--------------------------9---6----------------9---6----|
D|----------7---9-----------------------------------------------------------------|
A|--------------------------------------------------------------------------------|
E|--------------------------------------------------------------------------------|


e|--------------------------------------------------------------------------------------------|
B|---------------------------9/12---9---7/9--7-----7---9-------------------7---9--------------|
G|-----6-------------6---9----------------------------------9---6--4--6b----------9---6---4---|
D|----------7---9-----------------------------------------------------------------------------|
A|--------------------------------------------------------------------------------------------|
E|--------------------------------------------------------------------------------------------|

Guitar 3 solo:
e|-12--14---------------------------------------------------------------------------------------|
B|----------12--14------------------------------------------------------------------------------|
G|------------------13--14----------------------------------------------------11--13--11--------|
D|---------------------------14--16--11--14-----------11--------------11--14--------------14-11-|
A|--------------------------------------------12--14------14--12--14----------------------------|
E|----------------------------------------------------------------------------------------------|

e|-------------------------------------------------------------------------------------|
B|-------------------------------------------------------------------------------------|
G|--11--13--11-------------------------------------------------------------------------|
D|--------------14--11---9/11----------------------------------------------------------|
A|-------------------------------------------------------------------------------------|
E|-------------------------------------------------------------------------------------|

The entire song is basically these 3 parts repeated with minor variations here and
there. Please check
out the song to get the actual rhythm. Thanks and hoped this helped out.

************************************

| /   slide up
| \   slide down
| h   hammer-on
| p   pull-off
| ~   vibrato
| +   harmonic
| x   Mute note
| b   Bend
| pb  Pre-bend
| br  Bend release
| pbr Pre-bend release
| brb Bend release bend

************************************
Добавлено: 13.08.2015
Вам также может быть интересно:
Другие материалы по этой песне:
  • Аккорды и текст

Страница создана 13.08.2015
http://primanota.ru/dream-koala/we-cant-be-friends-chords.htm
Привет, Гость.
Предлагаем пройти революционный курс по гитаре.
Подарок от PrimaNota.Ru, забирай!