PrimaNota.ru - самый крупный в мире бесплатный архив песенных текстов, аккордов, табулатур и нот


Dream Koala - Saturn Boy - таба, видео

Регистрация Запомнить меня
Войти через:  Facebook Google Twitter Vk Yandex Mail.ru

Dream Koala - Saturn Boy - таба, видео

Печатать
Просмотров: 332
-------------------------------------------------------------------------------
                             SATURN BOY - Dream Koala
-------------------------------------------------------------------------------
Tabbed by: jtrimster

Tuning: Standard

Verse 1: (I look at the stars at night, and I wonder...) [2x]
e|---------------------------------------------------------------------------|
B|----8---8------8---8------8---8------8---8---------------------------------|
G|---------------------------------------------------------------------------|
D|---------------------------------------------------------------------------|
A|--7---7---7--7---7---7--7---7---7--7---7---7-------------------------------|
E|---------------------------------------------------------------------------|

e|---------------------------------------------------------------------------|
B|----7---7------7---7------7---7------7---7---------------------------------|
G|---------------------------------------------------------------------------|
D|---------------------------------------------------------------------------|
A|--5---5---5--5---5---5--5---5---5--5---5---5-------------------------------|
E|---------------------------------------------------------------------------|

e|---------------------------------------------------------------------------|
B|----12---12--------12---12-------12---12-------12---12---------------------|
G|---------------------------------------------------------------------------|
D|---------------------------------------------------------------------------|
A|--12---12---12--12---12---12--12---12---12--12---12---12-------------------|
E|---------------------------------------------------------------------------|

e|---------------------------------------------------------------------------|
B|-----17---17-------17---17-------17---17-------17---17---------------------|
G|---------------------------------------------------------------------------|
D|---------------------------------------------------------------------------|
A|--15---15---15--15---15---15--15---15---15--15---15---15-------------------|
E|---------------------------------------------------------------------------|

Chorus: (So far from home...) [2x]
e|---------------------------------------------------------------------------|
B|----5---5------5---5------5---5------5---5---------------------------------|
G|---------------------------------------------------------------------------|
D|---------------------------------------------------------------------------|
A|--3---3---3--3---3---3--3---3---3--3---3---3-------------------------------|
E|---------------------------------------------------------------------------|

e|---------------------------------------------------------------------------|
B|----8---8------8---8------8---8------8---8---------------------------------|
G|---------------------------------------------------------------------------|
D|---------------------------------------------------------------------------|
A|--7---7---7--7---7---7--7---7---7--7---7---7-------------------------------|
E|---------------------------------------------------------------------------|

e|---------------------------------------------------------------------------|
B|----7---7------7---7------7---7------7---7---------------------------------|
G|---------------------------------------------------------------------------|
D|---------------------------------------------------------------------------|
A|--5---5---5--5---5---5--5---5---5--5---5---5-------------------------------|
E|---------------------------------------------------------------------------|

e|---------------------------------------------------------------------------|
B|----3---3------3---3------3---3------3---3---------------------------------|
G|---------------------------------------------------------------------------|
D|---------------------------------------------------------------------------|
A|--2---2---2--2---2---2--2---2---2--2---2---2-------------------------------|
E|---------------------------------------------------------------------------|

Verse 2:(It scares me to think of tomorrow...) [Same as Verse 1, played 2x again]

Final Chorus: (So far from home...)[Played through 4x]

END

Thanks for checking it out! This was my first tab so I'd appreciate any comments/corrections! Dream Koala 
has some absolutely fantastic and beautiful music, I thought he deserved to have a tab in here! 
Добавлено: 10.07.2015
Вам также может быть интересно:
Другие материалы по этой песне:
  • Аккорды и текст

Страница создана 10.07.2015
http://primanota.ru/dream-koala/saturn-boy-chords.htm
Привет, Гость.
Предлагаем пройти революционный курс по гитаре.
Подарок от PrimaNota.Ru, забирай!