PrimaNota.ru - самый крупный в мире бесплатный архив песенных текстов, аккордов, табулатур и нот


Dream Evil - Break The Chains - текст песни, таба, видео

Регистрация Запомнить меня
Войти через:  Facebook Google Twitter Vk Yandex Mail.ru

Dream Evil - Break The Chains - текст песни, таба, видео

Печатать
Просмотров: 134
As recorded by Dream Evil
(From the 2003 Album EVILISED)

Transcribed by M.Lowe
        

Music by Gus G.

Gtr I (D G C F A D) - 'Lead'
Gtr II (D G C F A D) - 'Rhythm'

 Intro
  Fast Metal Q=188
  A5                                          G5
 4/4
  Gtr I
  PM----------------------------------------| ~
  |-3-| |-3-| |-3-| |-3-|   |-3-| |-3-| |-3-|
  E E E E E E E E E E E E   E E E E E E E E E Q
|-------------------------|----------------------|
|-------------------------|----------------------|
|-------------------------|----------------------|
|-------------------------|----------------------|
|-0-0-0-7-0-0-8-0-0-5-0-0-|-7-0-0-3-0-0-5-0-0-2--|
|-------------------------|----------------------|
|
| Gtr II
| q     H           Q       H           Q     Q
|-------------------------|----------------------|
|-------------------------|----------------------|
|-2-----------------------|----------------------|
|-2-----------------------|-------------------5--|
|-0-----------------------|-------------------5--|
|-------------------------|-------------------3--|


  A5                                          C5
  PM----------------------------|
  |-3-| |-3-| |-3-| |-3-|   |-3-| |-3-| |-3-| |-3-|
  E E E E E E E E E E E E   E E E E E E E E E E E E
|-------------------------|----------------------------|
|-------------------------|----------------------------|
|-------------------------|----------------------------|
|-------------------------|----------------------------|
|-0-0-0-7-0-0-8-0-0-5-0-0-|-0-0-0-2-2-2-3-3-3-5-5-5----|
|-------------------------|----------------------------|
|
| q     H           Q       H           Q     Q
|-------------------------|----------------------------|
|-------------------------|----------------------------|
|-2-----------------------|-------------------5--------|
|-2-----------------------|-------------------5--------|
|-0-----------------------|-------------------3--------|
|-------------------------|----------------------------|


  A5                                          G5
  PM----------------------------------------| ~
  |-3-| |-3-| |-3-| |-3-|   |-3-| |-3-| |-3-|
  E E E E E E E E E E E E   E E E E E E E E E Q
|-------------------------|----------------------|
|-------------------------|----------------------|
|-------------------------|----------------------|
|-------------------------|----------------------|
|-0-0-0-7-0-0-8-0-0-5-0-0-|-7-0-0-3-0-0-5-0-0-2--|
|-------------------------|----------------------|
|
| q     H           Q       H           Q     Q
|-------------------------|----------------------|
|-------------------------|----------------------|
|-2-----------------------|----------------------|
|-2-----------------------|-------------------5--|
|-0-----------------------|-------------------5--|
|-------------------------|-------------------3--|


  A5                        D5
  PM--------------------|              PM-|
  |-3-| |-3-| |-3-| |-3-|   |-3-|
  E E E E E E E E E E E E   E E E q  E e. e.
|-------------------------|-------------------|
|-------------------------|-------------------|
|-------------------------|-7-7-7-7-----------|
|-------------------------|-7-7-7-7-----------|
|-0-0-0-7-0-0-8-0-0-5-0-0-|-5-5-5-5----0--0---|
|-------------------------|-------------------|
|
|                                      PM-|
|                           |-3-|
| q     H           Q       E E E q  E e. e.
|-------------------------|-------------------|
|-------------------------|-------------------|
|-2-----------------------|-7-7-7-7-----------|
|-2-----------------------|-7-7-7-7-----------|
|-0-----------------------|-5-5-5-5----0--0---|
|-------------------------|-------------------|


  N.C.
  PM----------------------------------------| ~
  |-3-| |-3-| |-3-| |-3-|   |-3-| |-3-| |-3-|
  E E E E E E E E E E E E   E E E E E E E E E Q
|-------------------------|----------------------|
|-------------------------|----------------------|
|-------------------------|----------------------|
|-------------------------|----------------------|
|-0-0-0-7-0-0-8-0-0-5-0-0-|-7-0-0-3-0-0-5-0-0-2--|
|-------------------------|----------------------|
|
| PM----------------------------------------| ~
| |-3-| |-3-| |-3-| |-3-|   |-3-| |-3-| |-3-|
| E E E E E E E E E E E E   E E E E E E E E E Q
|-------------------------|----------------------|
|-------------------------|----------------------|
|-------------------------|----------------------|
|-------------------------|----------------------|
|-0-0-0-7-0-0-8-0-0-5-0-0-|-7-0-0-3-0-0-5-0-0-2--|
|-------------------------|----------------------|


  PM----------------------------|
  |-3-| |-3-| |-3-| |-3-|   |-3-| |-3-| |-3-| |-3-|
  E E E E E E E E E E E E   E E E E E E E E E E E E
|-------------------------|-------------------------|
|-------------------------|-------------------------|
|-------------------------|-------------------------|
|-------------------------|-------------------------|
|-0-0-0-7-0-0-8-0-0-5-0-0-|-0-0-0-2-2-2-3-3-3-5-5-5-|
|-------------------------|-------------------------|
|
| PM----------------------------|
| |-3-| |-3-| |-3-| |-3-|   |-3-| |-3-| |-3-| |-3-|
| E E E E E E E E E E E E   E E E E E E E E E E E E
|-------------------------|-------------------------|
|-------------------------|-------------------------|
|-------------------------|-------------------------|
|-------------------------|-------------------------|
|-0-0-0-7-0-0-8-0-0-5-0-0-|-0-0-0-2-2-2-3-3-3-5-5-5-|
|-------------------------|-------------------------|


  N.C.
  PM----------------------------------------|  ~~~
  |-3-| |-3-| |-3-| |-3-|   |-3-| |-3-| |-3-|
  E E E E E E E E E E E E   E E E E E E E E E  Q
|-------------------------|------------------------|
|-------------------------|------------------------|
|-------------------------|------------------------|
|-------------------------|------------------------|
|-0-0-0-7-0-0-8-0-0-5-0-0-|-7-0-0-3-0-0-5-0-0-[2]--|
|-------------------------|------------------------|
|
| PM----------------------------------------|  ~~~
| |-3-| |-3-| |-3-| |-3-|   |-3-| |-3-| |-3-|
| E E E E E E E E E E E E   E E E E E E E E E  Q
|-------------------------|------------------------|
|-------------------------|------------------------|
|-------------------------|------------------------|
|-------------------------|------------------------|
|-0-0-0-7-0-0-8-0-0-5-0-0-|-7-0-0-3-0-0-5-0-0-[2]--|
|-------------------------|------------------------|


                            D5
  PM--------------------|              PM-|
  |-3-| |-3-| |-3-| |-3-|   |-3-|
  E E E E E E E E E E E E   E E E q  E e. e.
|-------------------------|-------------------|
|-------------------------|-------------------|
|-------------------------|-7-7-7-7-----------|
|-------------------------|-7-7-7-7-----------|
|-0-0-0-7-0-0-8-0-0-5-0-0-|-5-5-5-5----0--0---|
|-------------------------|-------------------|
|
| PM--------------------|              PM-|
| |-3-| |-3-| |-3-| |-3-|   |-3-|
| E E E E E E E E E E E E   E E E q  E e. e.
|-------------------------|-------------------|
|-------------------------|-------------------|
|-------------------------|-7-7-7-7-----------|
|-------------------------|-7-7-7-7-----------|
|-0-0-0-7-0-0-8-0-0-5-0-0-|-5-5-5-5----0--0---|
|-------------------------|-------------------|


 Pre-Verse
  A5          E5            F5         D5   G5
   ~~                       ~~~~~~~~~~~~~~~~~~
              |--3---|
   W          H   H  H      W          H    H
|-----------|-------------|----------|-----------|
|-----------|-------------|----------|-----------|
|-----------|-------------|----------|-9----7----|
|-10--------|-9-----------|-7--------|-----------|
|-----------|----10--7----|----------|-----------|
|-----------|-------------|----------|-----------|
|
|  W          W             W          H    H
|-----------|-------------|----------|-----------|
|-----------|-------------|----------|-----------|
|--2--------|-------------|----------|-7---------|
|--2--------|-2-----------|-3--------|-7----5----|
|--0--------|-2-----------|-3--------|-5----5----|
|-----------|-0-----------|-1--------|------3----|


  A5          E5            F5         C5 B5A5G5
   ~~                       ~                  ~~~
              |--3---|                  |-3-|
   W          H   H  H      W           Q Q Q  H
|-----------|-------------|----------|---------------|
|-----------|-------------|----------|---------------|
|-----------|-------------|----------|---------------|
|-10--------|-9-----------|-7--------|-10-9-7--------|
|-----------|----10--7----|----------|--------10\----|
|-----------|-------------|----------|---------------|
|
|                                       |-3-|
|  W          W             W           Q Q Q  H
|-----------|-------------|----------|---------------|
|-----------|-------------|----------|---------------|
|--2--------|-------------|----------|--5-4-2--------|
|--2--------|-2-----------|-3--------|--5-4-2--5\----|
|--0--------|-2-----------|-3--------|--3-2-0--5\----|
|-----------|-0-----------|-1--------|---------3\----|


   Verse 1
    D5         G5         N.C.
                          PM----------------------------------------------|
                          |-3-| |-3-| |-3-| |-3-|   |-3-| |-3-| |-3-| |-3-|
    W          W          E E E E E E E E E E E E   E E E E E E E E E E E E
||-----------|----------|-------------------------|-------------------------|
||o----------|----------|-------------------------|-------------------------|
||--7--------|----------|-------------------------|-------------------------|
||--7--------|-5--------|-------------------------|-------------------------|
||o-5--------|-5--------|-0-0-0-7-0-0-8-0-0-5-0-0-|-0-0-0-7-0-0-8-0-0-5-0-0-|
||-----------|-3--------|-------------------------|-------------------------|
|
|                         PM----------------------------------------------|
|                         |-3-| |-3-| |-3-| |-3-|   |-3-| |-3-| |-3-| |-3-|
|   W          W          E E E E E E E E E E E E   E E E E E E E E E E E E
||-----------|----------|-------------------------|-------------------------|
||o----------|----------|-------------------------|-------------------------|
||--7--------|----------|-------------------------|-------------------------|
||--7--------|-5--------|-------------------------|-------------------------|
||o-5--------|-5--------|-0-0-0-7-0-0-8-0-0-5-0-0-|-0-0-0-7-0-0-8-0-0-5-0-0-|
||-----------|-3--------|-------------------------|-------------------------|


  1.
  D5         G5         F5
                             PM-----|        PM--------|
                                             |-3-| |-3-|
  W          W          H    e q  S S   H    E E E E E E
|----------|----------|---------------|--------------------||
|----------|----------|---------------|-------------------o||
|-7--------|----------|---------------|--------------------||
|-7--------|-5--------|-3----3-3--3-3-|-3----3-3-3-3-3-3---||
|-5--------|-5--------|-3----3-3--3-3-|-3----3-3-3-3-3-3--o||
|----------|-3--------|-1----1-1--1-1-|-1----1-1-1-1-1-1---||
|
|                            PM-----|        PM--------|
|                                            |-3-| |-3-|
| W          W          H    e q  S S   H    E E E E E E
|----------|----------|---------------|--------------------||
|----------|----------|---------------|-------------------o||
|-7--------|----------|---------------|--------------------||
|-7--------|-5--------|-3----3-3--3-3-|-3----3-3-3-3-3-3---||
|-5--------|-5--------|-3----3-3--3-3-|-3----3-3-3-3-3-3--o||
|----------|-3--------|-1----1-1--1-1-|-1----1-1-1-1-1-1---||


  2.
  C5         G5         F5
                        PM--------------------|
                        |-3-| |-3-| |-3-| |-3-|
  W          W          E E E E E E E E E E E E
|----------|----------|-------------------------|
|----------|----------|-------------------------|
|-5--------|----------|-------------------------|
|-5--------|-5--------|-------------------------|
|-3--------|-5--------|-3-3-3-3-3-3-3-3-3-3-3-3-|
|----------|-3--------|-1-1-1-1-1-1-1-1-1-1-1-1-|
|
|                       PM--------------------|
|                       |-3-| |-3-| |-3-| |-3-|
| W          W          E E E E E E E E E E E E
|----------|----------|-------------------------|
|----------|----------|-------------------------|
|-5--------|----------|-------------------------|
|-5--------|-5--------|-------------------------|
|-3--------|-5--------|-3-3-3-3-3-3-3-3-3-3-3-3-|
|----------|-3--------|-1-1-1-1-1-1-1-1-1-1-1-1-|


  F5                        G5                        E5F5 D5E5
  PM----------------------------------------------|
  |-3-| |-3-| |-3-| |-3-|   |-3-| |-3-| |-3-| |-3-|   |-3--|
  E E E E E E E E E E E E   E E E E E E E E E E E E   Q  Q Q H
|-------------------------|-------------------------|--------------|
|-------------------------|-------------------------|--------------|
|-------------------------|-------------------------|-9-10-7-9\----|
|-------------------------|-------------------------|-9-10-7-9\----|
|-3-3-3-3-3-3-3-3-3-3-3-3-|-5-5-5-5-5-5-5-5-5-5-5-5-|-7--8-5-7\----|
|-1-1-1-1-1-1-1-1-1-1-1-1-|-3-3-3-3-3-3-3-3-3-3-3-3-|--------------|
|
| PM----------------------------------------------|
| |-3-| |-3-| |-3-| |-3-|   |-3-| |-3-| |-3-| |-3-|   |-3--|
| E E E E E E E E E E E E   E E E E E E E E E E E E   Q  Q Q H
|-------------------------|-------------------------|--------------|
|-------------------------|-------------------------|--------------|
|-------------------------|-------------------------|-9-10-7-9\----|
|-------------------------|-------------------------|-9-10-7-9\----|
|-3-3-3-3-3-3-3-3-3-3-3-3-|-5-5-5-5-5-5-5-5-5-5-5-5-|-7--8-5-7\----|
|-1-1-1-1-1-1-1-1-1-1-1-1-|-3-3-3-3-3-3-3-3-3-3-3-3-|--------------|


   Chorus 1
    A5         E5         F5         D5   G5
    W          W          W          H    H
||-----------|----------|----------|-----------|
||o----------|----------|----------|-----------|
||--2--------|----------|----------|-7---------|
||--2--------|-2--------|-3--------|-7----5----|
||o-0--------|-2--------|-3--------|-5----5----|
||-----------|-0--------|-1--------|------3----|
|
|   W          W          W          H    H
||-----------|----------|----------|-----------|
||o----------|----------|----------|-----------|
||--2--------|----------|----------|-7---------|
||--2--------|-2--------|-3--------|-7----5----|
||o-0--------|-2--------|-3--------|-5----5----|
||-----------|-0--------|-1--------|------3----|


                       1.
  A5         E5         F5                         G5
                                  PM--|      PM--|    PM--|
  W          W          H    +Q   S S E   Q  S S E Q  S S E
|----------|----------|-----------------|---------------------||
|----------|----------|-----------------|--------------------o||
|-2--------|----------|-----------------|---------------------||
|-2--------|-2--------|-3----(3)--------|-3--------5----------||
|-0--------|-2--------|-3----(3)--------|-3--------5---------o||
|----------|-0--------|-1----(1)--1-1-1-|-1--1-1-1-3--3-3-3---||
|
|                                 PM--|      PM--|    PM--|
| W          W          H    +Q   S S E   Q  S S E Q  S S E
|----------|----------|-----------------|---------------------||
|----------|----------|-----------------|--------------------o||
|-2--------|----------|-----------------|---------------------||
|-2--------|-2--------|-3----(3)--------|-3--------5----------||
|-0--------|-2--------|-3----(3)--------|-3--------5---------o||
|----------|-0--------|-1----(1)--1-1-1-|-1--1-1-1-3--3-3-3---||


  2.
  F5         C5B5A5G5
             |-3-|
  W          Q Q Q H
|----------|-------------|
|----------|-------------|
|----------|-5-4-2-------|
|-3--------|-5-4-2-5\----|
|-3--------|-3-2-0-5\----|
|-1--------|-------3\----|
|
|            |-3-|
| W          Q Q Q H
|----------|-------------|
|----------|-------------|
|----------|-5-4-2-------|
|-3--------|-5-4-2-5\----|
|-3--------|-3-2-0-5\----|
|-1--------|-------3\----|


 Interlude Riff
  N.C.
  PM----------------------------------------| ~
  |-3-| |-3-| |-3-| |-3-|   |-3-| |-3-| |-3-|
  E E E E E E E E E E E E   E E E E E E E E E Q
|-------------------------|----------------------|
|-------------------------|----------------------|
|-------------------------|----------------------|
|-------------------------|----------------------|
|-0-0-0-7-0-0-8-0-0-5-0-0-|-7-0-0-3-0-0-5-0-0-2--|
|-------------------------|----------------------|
|
| PM----------------------------------------| ~
| |-3-| |-3-| |-3-| |-3-|   |-3-| |-3-| |-3-|
| E E E E E E E E E E E E   E E E E E E E E E Q
|-------------------------|----------------------|
|-------------------------|----------------------|
|-------------------------|----------------------|
|-------------------------|----------------------|
|-0-0-0-7-0-0-8-0-0-5-0-0-|-7-0-0-3-0-0-5-0-0-2--|
|-------------------------|----------------------|


  PM----------------------------|
  |-3-| |-3-| |-3-| |-3-|   |-3-| |-3-| |-3-| |-3-|
  E E E E E E E E E E E E   E E E E E E E E E E E E
|-------------------------|-------------------------|
|-------------------------|-------------------------|
|-------------------------|-------------------------|
|-------------------------|-------------------------|
|-0-0-0-7-0-0-8-0-0-5-0-0-|-0-0-0-2-2-2-3-3-3-5-5-5-|
|-------------------------|-------------------------|
|
| PM----------------------------|
| |-3-| |-3-| |-3-| |-3-|   |-3-| |-3-| |-3-| |-3-|
| E E E E E E E E E E E E   E E E E E E E E E E E E
|-------------------------|-------------------------|
|-------------------------|-------------------------|
|-------------------------|-------------------------|
|-------------------------|-------------------------|
|-0-0-0-7-0-0-8-0-0-5-0-0-|-0-0-0-2-2-2-3-3-3-5-5-5-|
|-------------------------|-------------------------|


  N.C.
  PM----------------------------------------|  ~~~
  |-3-| |-3-| |-3-| |-3-|   |-3-| |-3-| |-3-|
  E E E E E E E E E E E E   E E E E E E E E E  Q
|-------------------------|------------------------|
|-------------------------|------------------------|
|-------------------------|------------------------|
|-------------------------|------------------------|
|-0-0-0-7-0-0-8-0-0-5-0-0-|-7-0-0-3-0-0-5-0-0-[2]--|
|-------------------------|------------------------|
|
| PM----------------------------------------|  ~~~
| |-3-| |-3-| |-3-| |-3-|   |-3-| |-3-| |-3-|
| E E E E E E E E E E E E   E E E E E E E E E  Q
|-------------------------|------------------------|
|-------------------------|------------------------|
|-------------------------|------------------------|
|-------------------------|------------------------|
|-0-0-0-7-0-0-8-0-0-5-0-0-|-7-0-0-3-0-0-5-0-0-[2]--|
|-------------------------|------------------------|


                            D5
  PM--------------------|              PM-|
  |-3-| |-3-| |-3-| |-3-|   |-3-|
  E E E E E E E E E E E E   E E E q  E e. e.
|-------------------------|-------------------|
|-------------------------|-------------------|
|-------------------------|-7-7-7-7-----------|
|-------------------------|-7-7-7-7-----------|
|-0-0-0-7-0-0-8-0-0-5-0-0-|-5-5-5-5----0--0---|
|-------------------------|-------------------|
|
| PM--------------------|              PM-|
| |-3-| |-3-| |-3-| |-3-|   |-3-|
| E E E E E E E E E E E E   E E E q  E e. e.
|-------------------------|-------------------|
|-------------------------|-------------------|
|-------------------------|-7-7-7-7-----------|
|-------------------------|-7-7-7-7-----------|
|-0-0-0-7-0-0-8-0-0-5-0-0-|-5-5-5-5----0--0---|
|-------------------------|-------------------|


   Verse 2
    D5         G5         N.C.
                          PM----------------------------------------------|
                          |-3-| |-3-| |-3-| |-3-|   |-3-| |-3-| |-3-| |-3-|
    W          W          E E E E E E E E E E E E   E E E E E E E E E E E E
||-----------|----------|-------------------------|-------------------------|
||o----------|----------|-------------------------|-------------------------|
||--7--------|----------|-------------------------|-------------------------|
||--7--------|-5--------|-------------------------|-------------------------|
||o-5--------|-5--------|-0-0-0-7-0-0-8-0-0-5-0-0-|-0-0-0-7-0-0-8-0-0-5-0-0-|
||-----------|-3--------|-------------------------|-------------------------|
|
|                         PM----------------------------------------------|
|                         |-3-| |-3-| |-3-| |-3-|   |-3-| |-3-| |-3-| |-3-|
|   W          W          E E E E E E E E E E E E   E E E E E E E E E E E E
||-----------|----------|-------------------------|-------------------------|
||o----------|----------|-------------------------|-------------------------|
||--7--------|----------|-------------------------|-------------------------|
||--7--------|-5--------|-------------------------|-------------------------|
||o-5--------|-5--------|-0-0-0-7-0-0-8-0-0-5-0-0-|-0-0-0-7-0-0-8-0-0-5-0-0-|
||-----------|-3--------|-------------------------|-------------------------|


  1.
  D5         G5         F5
                             PM-----|        PM--------|
                                             |-3-| |-3-|
  W          W          H    e q  S S   H    E E E E E E
|----------|----------|---------------|--------------------||
|----------|----------|---------------|-------------------o||
|-7--------|----------|---------------|--------------------||
|-7--------|-5--------|-3----3-3--3-3-|-3----3-3-3-3-3-3---||
|-5--------|-5--------|-3----3-3--3-3-|-3----3-3-3-3-3-3--o||
|----------|-3--------|-1----1-1--1-1-|-1----1-1-1-1-1-1---||
|
|                            PM-----|        PM--------|
|                                            |-3-| |-3-|
| W          W          H    e q  S S   H    E E E E E E
|----------|----------|---------------|--------------------||
|----------|----------|---------------|-------------------o||
|-7--------|----------|---------------|--------------------||
|-7--------|-5--------|-3----3-3--3-3-|-3----3-3-3-3-3-3---||
|-5--------|-5--------|-3----3-3--3-3-|-3----3-3-3-3-3-3--o||
|----------|-3--------|-1----1-1--1-1-|-1----1-1-1-1-1-1---||


  2.
  C5         G5         F5
                        PM--------------------|
                        |-3-| |-3-| |-3-| |-3-|
  W          W          E E E E E E E E E E E E
|----------|----------|-------------------------|
|----------|----------|-------------------------|
|-5--------|----------|-------------------------|
|-5--------|-5--------|-------------------------|
|-3--------|-5--------|-3-3-3-3-3-3-3-3-3-3-3-3-|
|----------|-3--------|-1-1-1-1-1-1-1-1-1-1-1-1-|
|
|                       PM--------------------|
|                       |-3-| |-3-| |-3-| |-3-|
| W          W          E E E E E E E E E E E E
|----------|----------|-------------------------|
|----------|----------|-------------------------|
|-5--------|----------|-------------------------|
|-5--------|-5--------|-------------------------|
|-3--------|-5--------|-3-3-3-3-3-3-3-3-3-3-3-3-|
|----------|-3--------|-1-1-1-1-1-1-1-1-1-1-1-1-|


  F5                        G5                        E5F5 D5E5
  PM----------------------------------------------|
  |-3-| |-3-| |-3-| |-3-|   |-3-| |-3-| |-3-| |-3-|   |-3--|
  E E E E E E E E E E E E   E E E E E E E E E E E E   Q  Q Q H
|-------------------------|-------------------------|--------------|
|-------------------------|-------------------------|--------------|
|-------------------------|-------------------------|-9-10-7-9\----|
|-------------------------|-------------------------|-9-10-7-9\----|
|-3-3-3-3-3-3-3-3-3-3-3-3-|-5-5-5-5-5-5-5-5-5-5-5-5-|-7--8-5-7\----|
|-1-1-1-1-1-1-1-1-1-1-1-1-|-3-3-3-3-3-3-3-3-3-3-3-3-|--------------|
|
| PM----------------------------------------------|
| |-3-| |-3-| |-3-| |-3-|   |-3-| |-3-| |-3-| |-3-|   |-3--|
| E E E E E E E E E E E E   E E E E E E E E E E E E   Q  Q Q H
|-------------------------|-------------------------|--------------|
|-------------------------|-------------------------|--------------|
|-------------------------|-------------------------|-9-10-7-9\----|
|-------------------------|-------------------------|-9-10-7-9\----|
|-3-3-3-3-3-3-3-3-3-3-3-3-|-5-5-5-5-5-5-5-5-5-5-5-5-|-7--8-5-7\----|
|-1-1-1-1-1-1-1-1-1-1-1-1-|-3-3-3-3-3-3-3-3-3-3-3-3-|--------------|


   Chorus 2
    A5         E5         F5         D5   G5
    W          W          W          H    H
||-----------|----------|----------|-----------|
||o----------|----------|----------|-----------|
||--2--------|----------|----------|-7---------|
||--2--------|-2--------|-3--------|-7----5----|
||o-0--------|-2--------|-3--------|-5----5----|
||-----------|-0--------|-1--------|------3----|
|
|   W          W          W          H    H
||-----------|----------|----------|-----------|
||o----------|----------|----------|-----------|
||--2--------|----------|----------|-7---------|
||--2--------|-2--------|-3--------|-7----5----|
||o-0--------|-2--------|-3--------|-5----5----|
||-----------|-0--------|-1--------|------3----|


                       1.
  A5         E5         F5                         G5
                                  PM--|      PM--|    PM--|
  W          W          H    +Q   S S E   Q  S S E Q  S S E
|----------|----------|-----------------|---------------------||
|----------|----------|-----------------|--------------------o||
|-2--------|----------|-----------------|---------------------||
|-2--------|-2--------|-3----(3)--------|-3--------5----------||
|-0--------|-2--------|-3----(3)--------|-3--------5---------o||
|----------|-0--------|-1----(1)--1-1-1-|-1--1-1-1-3--3-3-3---||
|
|                                 PM--|      PM--|    PM--|
| W          W          H    +Q   S S E   Q  S S E Q  S S E
|----------|----------|-----------------|---------------------||
|----------|----------|-----------------|--------------------o||
|-2--------|----------|-----------------|---------------------||
|-2--------|-2--------|-3----(3)--------|-3--------5----------||
|-0--------|-2--------|-3----(3)--------|-3--------5---------o||
|----------|-0--------|-1----(1)--1-1-1-|-1--1-1-1-3--3-3-3---||


  2.
  F5         C5B5A5G5
             |-3-|
  W          Q Q Q H
|----------|-------------|
|----------|-------------|
|----------|-5-4-2-------|
|-3--------|-5-4-2-5\----|
|-3--------|-3-2-0-5\----|
|-1--------|-------3\----|
|
|            |-3-|
| W          Q Q Q H
|----------|-------------|
|----------|-------------|
|----------|-5-4-2-------|
|-3--------|-5-4-2-5\----|
|-3--------|-3-2-0-5\----|
|-1--------|-------3\----|


 Bridge
  F5                              G5
                    PM--------|                     PM--------|
                    |-3-| |-3-|                     |-3-| |-3-|
  W          +H     E E E E E E   W          +H     E E E E E E
|----------|--------------------|----------|--------------------|
|----------|--------------------|----------|--------------------|
|----------|--------------------|----------|--------------------|
|-3--------|-(3)----3-3-3-3-3-3-|-5--------|-(5)----5-5-5-5-5-5-|
|-3--------|-(3)----3-3-3-3-3-3-|-5--------|-(5)----5-5-5-5-5-5-|
|-1--------|-(1)----1-1-1-1-1-1-|-3--------|-(3)----3-3-3-3-3-3-|
|
|                   PM--------|                     PM--------|
|                   |-3-| |-3-|                     |-3-| |-3-|
| W          +H     E E E E E E   W          +H     E E E E E E
|----------|--------------------|----------|--------------------|
|----------|--------------------|----------|--------------------|
|----------|--------------------|----------|--------------------|
|-3--------|-(3)----3-3-3-3-3-3-|-5--------|-(5)----5-5-5-5-5-5-|
|-3--------|-(3)----3-3-3-3-3-3-|-5--------|-(5)----5-5-5-5-5-5-|
|-1--------|-(1)----1-1-1-1-1-1-|-3--------|-(3)----3-3-3-3-3-3-|


  C5                              G5
                    PM--------|
                    |-3-| |-3-|
  W          +H     E E E E E E   W          H    H
|----------|--------------------|----------|-----------|
|----------|--------------------|----------|-----------|
|-5--------|-(5)----5-5-5-5-5-5-|----------|-----------|
|-5--------|-(5)----5-5-5-5-5-5-|-5--------|-5----5----|
|-3--------|-(3)----3-3-3-3-3-3-|-5--------|-5----5----|
|----------|--------------------|-3--------|-3----3----|
|
|                   PM--------|
|                   |-3-| |-3-|
| W          +H     E E E E E E   W          H    H
|----------|--------------------|----------|-----------|
|----------|--------------------|----------|-----------|
|-5--------|-(5)----5-5-5-5-5-5-|----------|-----------|
|-5--------|-(5)----5-5-5-5-5-5-|-5--------|-5----5----|
|-3--------|-(3)----3-3-3-3-3-3-|-5--------|-5----5----|
|----------|--------------------|-3--------|-3----3----|


  F5
  PM-------------------------------------------------
  |-3-| |-3-| |-3-| |-3-|   |-3-| |-3-| |-3-| |-3-|
  E E E E E E E E E E E E   E E E E E E E E E E E E
|-------------------------|-------------------------|
|-------------------------|-------------------------|
|-------------------------|-------------------------|
|-------------------------|-------------------------|
|-3-3-3-3-3-3-3-3-3-3-3-3-|-3-3-3-3-3-3-3-3-3-3-3-3-|
|-1-1-1-1-1-1-1-1-1-1-1-1-|-1-1-1-1-1-1-1-1-1-1-1-1-|
|
| PM-------------------------------------------------
| |-3-| |-3-| |-3-| |-3-|   |-3-| |-3-| |-3-| |-3-|
| E E E E E E E E E E E E   E E E E E E E E E E E E
|-------------------------|-------------------------|
|-------------------------|-------------------------|
|-------------------------|-------------------------|
|-------------------------|-------------------------|
|-3-3-3-3-3-3-3-3-3-3-3-3-|-3-3-3-3-3-3-3-3-3-3-3-3-|
|-1-1-1-1-1-1-1-1-1-1-1-1-|-1-1-1-1-1-1-1-1-1-1-1-1-|


  G5                        E5F5 D5E5
 -----------------------|
  |-3-| |-3-| |-3-| |-3-|   |-3--|
  E E E E E E E E E E E E   Q  Q Q E  +Q.
|-------------------------|-------------------|
|-------------------------|-------------------|
|-------------------------|-9-10-7------------|
|-------------------------|-9-10-7-9----------|
|-5-5-5-5-5-5-5-5-5-5-5-5-|-7--8-5-7--(7)/----|
|-3-3-3-3-3-3-3-3-3-3-3-3-|-------------------|
|
|-----------------------|
| |-3-| |-3-| |-3-| |-3-|   |-3--|
| E E E E E E E E E E E E   Q  Q Q H
|-------------------------|-------------------|
|-------------------------|-------------------|
|-------------------------|-9-10-7-9\---------|
|-------------------------|-9-10-7-9\---------|
|-5-5-5-5-5-5-5-5-5-5-5-5-|-7--8-5-7\---------|
|-3-3-3-3-3-3-3-3-3-3-3-3-|-------------------|


 Guitar Solo
  D5
    S  S  S  S  S  S  S  S  S  S  S  S  S  S  S  S
|--------------------------------------------------|
|-----------------------------------------------13-|
|-----------------------------12-14-16-12-14-16----|
|-----------12-14-15-12-14-15----------------------|
|-/12-14-15----------------------------------------|
|--------------------------------------------------|
|
|   W
|--------------------------------------------------|
|--------------------------------------------------|
|---7----------------------------------------------|
|---7----------------------------------------------|
|---5----------------------------------------------|
|--------------------------------------------------|


  G5
                           |------6-------|
   S  S  S  S  S  S  S  S  E  E  E  E  E  E
|----------------13-15-17-13h15----13--------|
|-15-17-13-15-17----------------17----15h17--|
|--------------------------------------------|
|--------------------------------------------|
|--------------------------------------------|
|--------------------------------------------|
|
|  W
|--------------------------------------------|
|--------------------------------------------|
|--------------------------------------------|
|--5-----------------------------------------|
|--5-----------------------------------------|
|--3-----------------------------------------|


  N.C.
                                                              ~~
   |------6-------|  |------6-------|       |--3--|  |--3--|
   E  E  E  E  E  E  E  E  E  E  E  E    a  E  E  E  E  E  E  Q      +Q
|-------------------------------------|---------------------------------------|
|-13h15----13-------------------------|---------------------------------------|
|-------16----14h16-12h14----12-------|---------------------------------------|
|-------------------------15----15-15-|-12h14-12----12-14-15-14-----(14)\-----|
|-------------------------------------|----------15---------------------------|
|-------------------------------------|---------------------------------------|
|
|  PM-----------------------------------------------------------------------|
|  |--3--|  |--3--|  |--3--|  |--3--|       |--3--|  |--3--|  |-3-|   |--3--|
|  E  E  E  E  E  E  E  E  E  E  E  E       E  E  E  E  E  E  E E E   E   E E
|-------------------------------------|---------------------------------------|
|-------------------------------------|---------------------------------------|
|-------------------------------------|---------------------------------------|
|-------------------------------------|---------------------------------------|
|--0--0--0--7--0--0--8--0--0--5--0--0-|-----0--0--0--7--0--0--8-0-0---5---0-0-|
|-------------------------------------|---------------------------------------|


  D5                                     G5
    |------6-------|  |------6-------|     |------6-------|  |------6-------|
    E  E  E  E  E  E  E  E  E  E  E  E     E  E  E  E  E  E  E  E  E  E  E  E
|-----------13----13-17-13----------17-|-/19-15----------19-22-19----------19-|
|--------15----15----------15----15----|--------15----15----------20----20----|
|-----14----------------------14-------|-----------16----------------19-------|
|-/15----------------------------------|--------------------------------------|
|--------------------------------------|--------------------------------------|
|--------------------------------------|--------------------------------------|
|
|   W                                      W
|--------------------------------------|--------------------------------------|
|--------------------------------------|--------------------------------------|
|---7----------------------------------|--------------------------------------|
|---7----------------------------------|---5----------------------------------|
|---5----------------------------------|---5----------------------------------|
|--------------------------------------|---3----------------------------------|


  F5
                                           ~~
   E.     +Q    S  e  E E  E          +S   H      +E       +Q          S
|-20b22==(20)r----20-19---20b22====|=(20)r20-----(20)-----(20)\----------|
|----------------------------------|----------------------------------17-|
|----------------------------------|-------------------------------------|
|----------------------------------|-------------------------------------|
|----------------------------------|-------------------------------------|
|----------------------------------|-------------------------------------|
|
|                  PM------------|             PM-------------------|
|                                              |---3----|       |-3-|
|  H               e  q    S     S     H       E      E E       E E E
|----------------------------------|-------------------------------------|
|----------------------------------|-------------------------------------|
|----------------------------------|-------------------------------------|
|--3---------------3--3----3-----3-|---3-------3------3-3-------3-3-3----|
|--3---------------3--3----3-----3-|---3-------3------3-3-------3-3-3----|
|--1---------------1--1----1-----1-|---1-------1------1-1-------1-1-1----|


  D5
    |-------6-------|  |------6-------|
   +E   E  E  E  E  E  E  E  E  E  E  E
|---------20-------19-------17-------15--|
|-(17)s18----18s17----17s15----15s13-----|
|----------------------------------------|
|----------------------------------------|
|----------------------------------------|
|----------------------------------------|
|
|   W
|----------------------------------------|
|----------------------------------------|
|---7------------------------------------|
|---7------------------------------------|
|---5------------------------------------|
|----------------------------------------|


  G5
   |------6-------|  |----6-----|
   E  E  E  E  E  E  E E  E E E E
|-------13-------12------10-----8-|
|-13s12----12s10----10s8----8s7---|
|---------------------------------|
|---------------------------------|
|---------------------------------|
|---------------------------------|
|
|  W
|---------------------------------|
|---------------------------------|
|---------------------------------|
|--5------------------------------|
|--5------------------------------|
|--3------------------------------|


  N.C.
   T      T      T          T    T          T
   S S    S   S  S S   S    S S  S   S   S  S S   S   S
|-12p8---12p==8-----------------------------------------|
|---------------12p8p==5---12p8-------------------------|
|-------------------------------12p==8p==7-12p8p==7p==5-|
|-------------------------------------------------------|
|-------------------------------------------------------|
|-------------------------------------------------------|
|
|  PM-----------------------------------------------|
|  |---3----|    |---3---|    |---3----|    |---3---|
|  E   E    E    E   E   E    E    E   E    E   E   E
|-------------------------------------------------------|
|-------------------------------------------------------|
|-------------------------------------------------------|
|-------------------------------------------------------|
|--0---0----0----7---0---0----8----0---0----5---0---0---|
|-------------------------------------------------------|


  N.C.
                             ~~~~~~~~~~~~~~~~
        |-3-|   |--3--|
  S S   S S S S S   S S   S  Q.         +E
|----------------------------------------------|
|----------------------------------------------|
|---7------------------------------------------|
|-7-----7p5---7--------------------------------|
|-----------7---7p==6p5------------------------|
|-------------------------8-[5]---------(5)\---|
|
| PM-----------------------------------------|
| |---3---|   |----3----|    |-3--| |---3----|
| E   E   E   E   E     E    E  E E E E      E
|----------------------------------------------|
|----------------------------------------------|
|----------------------------------------------|
|----------------------------------------------|
|-0---0---0---7---0-----0----8--0-0-5-0------0-|
|----------------------------------------------|


  C5                            F5
  E    +Q.      E      +Q.       E      +Q.     E      +Q.
|-----------------------------|--------------------------------|
|-5----(5)------8------(8)----|-10-----(10)----13-----(13)-----|
|-7b9==(7)r---/10b12==(10)r---|-12b14==(12)r---15b17==(15)r----|
|-----------------------------|--------------------------------|
|-----------------------------|--------------------------------|
|-----------------------------|--------------------------------|
|
| W                              W
|-----------------------------|--------------------------------|
|-----------------------------|--------------------------------|
|-5---------------------------|--------------------------------|
|-5---------------------------|--3-----------------------------|
|-3---------------------------|--3-----------------------------|
|-----------------------------|--1-----------------------------|


  G5                                    E5 F5 D5          E5
           ~~~~~                                                      ~~~
                  |--3--|
   E      +Q.     E  E  E  S  S  S  S    S  S  S     S  S  S    S  S  H
|----------------------------------16-|-19-17-16----------------------------|
|-15-----(15)----15-17----15-17-18----|-------------18-17-15----------------|
|-17b19==(17)r---------17-------------|------------------------17-16-14-----|
|-------------------------------------|-------------------------------------|
|-------------------------------------|-------------------------------------|
|-------------------------------------|-------------------------------------|
|
|                                        |---------3---------|
|  W                                     Q        Q          Q        H
|-------------------------------------|-------------------------------------|
|-------------------------------------|-------------------------------------|
|-------------------------------------|--9-------10----------7--------9\----|
|--5----------------------------------|--9-------10----------7--------9\----|
|--5----------------------------------|--7--------8----------5--------7\----|
|--3----------------------------------|-------------------------------------|


   Chorus 3
    A5         E5         F5         D5   G5
    W          W          W          H    H
||-----------|----------|----------|-----------|
||o----------|----------|----------|-----------|
||--2--------|----------|----------|-7---------|
||--2--------|-2--------|-3--------|-7----5----|
||o-0--------|-2--------|-3--------|-5----5----|
||-----------|-0--------|-1--------|------3----|
|
|   W          W          W          H    H
||-----------|----------|----------|-----------|
||o----------|----------|----------|-----------|
||--2--------|----------|----------|-7---------|
||--2--------|-2--------|-3--------|-7----5----|
||o-0--------|-2--------|-3--------|-5----5----|
||-----------|-0--------|-1--------|------3----|


                       1.
  A5         E5         F5                         G5
                                  PM--|      PM--|    PM--|
  W          W          H    +Q   S S E   Q  S S E Q  S S E
|----------|----------|-----------------|---------------------||
|----------|----------|-----------------|--------------------o||
|-2--------|----------|-----------------|---------------------||
|-2--------|-2--------|-3----(3)--------|-3--------5----------||
|-0--------|-2--------|-3----(3)--------|-3--------5---------o||
|----------|-0--------|-1----(1)--1-1-1-|-1--1-1-1-3--3-3-3---||
|
|                                 PM--|      PM--|    PM--|
| W          W          H    +Q   S S E   Q  S S E Q  S S E
|----------|----------|-----------------|---------------------||
|----------|----------|-----------------|--------------------o||
|-2--------|----------|-----------------|---------------------||
|-2--------|-2--------|-3----(3)--------|-3--------5----------||
|-0--------|-2--------|-3----(3)--------|-3--------5---------o||
|----------|-0--------|-1----(1)--1-1-1-|-1--1-1-1-3--3-3-3---||


  2.
  F5         C5B5A5G5
             |-3-|
  W          Q Q Q H
|----------|-------------|
|----------|-------------|
|----------|-5-4-2-------|
|-3--------|-5-4-2-5\----|
|-3--------|-3-2-0-5\----|
|-1--------|-------3\----|
|
|            |-3-|
| W          Q Q Q H
|----------|-------------|
|----------|-------------|
|----------|-5-4-2-------|
|-3--------|-5-4-2-5\----|
|-3--------|-3-2-0-5\----|
|-1--------|-------3\----|


   Outro
    B5          F#5            G5         E5    A5
     ~~                        ~~~~~~~~~~~~~~~~~~~
                 |--3---|
     W           H   H  H      W           H    H
||------------|--------------|----------|------------|
||o-----------|--------------|----------|------------|
||------------|--------------|----------|-11----9----|
||--12--------|-11-----------|-9--------|------------|
||o-----------|-----12--9----|----------|------------|
||------------|--------------|----------|------------|
|
|    W           W             W           H    H
||------------|--------------|----------|------------|
||o-----------|--------------|----------|------------|
||---4--------|--------------|----------|--9---------|
||---4--------|--4-----------|-5--------|--9----7----|
||o--2--------|--4-----------|-5--------|--7----7----|
||------------|--2-----------|-3--------|-------5----|


                            1.
  B5          F#5            G5                         A5
   ~~                        ~~~~~~~~~~~~~~~~~~~~~~~~~~~~~~
               |--3---|
   W           H   H  H      W                 H         H
|-----------|--------------|-----------------|---------------------||
|-----------|--------------|-----------------|--------------------o||
|-----------|--------------|-----------------|---------------------||
|-12--------|-11-----------|-9---------------|-9--------11---------||
|-----------|-----12--9----|-----------------|--------------------o||
|-----------|--------------|-----------------|---------------------||
|
|                                      PM--|      PM--|     PM--|
|  W           W             H    +Q   S S E   Q  S S E  Q  S S E
|-----------|--------------|-----------------|---------------------||
|-----------|--------------|-----------------|--------------------o||
|--4--------|--------------|-----------------|---------------------||
|--4--------|--4-----------|-5----(5)--------|-5---------7---------||
|--2--------|--4-----------|-5----(5)--------|-5---------7--------o||
|-----------|--2-----------|-3----(3)--3-3-3-|-3--3-3-3--5--5-5-5--||


  2.
  G5         D5 C#5B5A5
  ~
              |-3--|
  W           Q  Q Q H
|----------|---------------|
|----------|---------------|
|----------|---------------|
|-9--------|-12-11-9-7\----|
|----------|---------------|
|----------|---------------|
|
|             |-3--|
| W           Q  Q Q H
|----------|---------------|
|----------|---------------|
|----------|--7--6-4-2\----|
|-5--------|--7--6-4-2\----|
|-5--------|--5--4-2-0\----|
|-3--------|---------------|


  F#5
  W          +W           +W           +W
|----------|------------|------------|--------*|
|----------|------------|------------|--------*|
|----------|------------|------------|--------*|
|-4--------|-(4)--------|-(4)--------|-(4)----*|
|-4--------|-(4)--------|-(4)--------|-(4)----*|
|-2--------|-(2)--------|-(2)--------|-(2)----*|
|
| W          +W           +W           +W
|----------|------------|------------|--------*|
|----------|------------|------------|--------*|
|----------|------------|------------|--------*|
|-4--------|-(4)--------|-(4)--------|-(4)----*|
|-4--------|-(4)--------|-(4)--------|-(4)----*|
|-2--------|-(2)--------|-(2)--------|-(2)----*|



Duration Legend
---------------
W - whole; H - half; Q - quarter; E - 8th; S - 16th; T - 32nd; X - 64th; a - acciaccatura
+ - note tied to previous; . - note dotted; .. - note double dotted
Uncapitalized letters represent notes that are staccato (1/2 duration)
Irregular groupings are notated above the duration line
Duration letters will always appear directly above the note/fret number it represents the
duration for.  Duration letters with no fret number below them represent rests.  Multi-
bar rests are notated in the form Wxn, where n is the number of bars to rest for.  Low
melody durations appear below the staff

Tablature Legend
----------------
 h   - hammer-on
 p   - pull-off
 b   - bend
 pb  - pre-bend
 r   - bend release (if no number after the r, then release immediately)
 /\  - slide into or out of (from/to "nowhere")
 s   - legato slide
 S   - shift slide
 - natural harmonic
[n]  - artificial harmonic
n(n) - tapped harmonic
 ~   - vibrato
 tr  - trill
 T   - tap
 TP  - trem. picking
 PM  - palm muting
\n/  - tremolo bar dip; n = amount to dip
 \n  - tremolo bar down
 n/  - tremolo bar up
/n\  - tremolo bar inverted dip
 =   - hold bend; also acts as connecting device for hammers/pulls
 <> - volume swell (louder/softer)
 x   - on rhythm slash represents muted slash
 o   - on rhythm slash represents single note slash

Misc Legend
-----------
 |  - bar
||  - double bar
||o - repeat start
o|| - repeat end
*|  - double bar (ending)
 :  - bar (freetime)
 $  - Segno
 &  - Coda
Tempo markers -  = BPM(8/16=s8/s16), where s8 = swing 8ths, s16 = swing 16ths

Добавлено: 12.06.2012
Другие материалы по этой песне:

Страница создана 28.03.2012
http://primanota.ru/dream-evil/break-the-chains-chords.htm
Привет, Гость.
Предлагаем пройти революционный курс по гитаре.
Подарок от PrimaNota.Ru, забирай!